Jackson Alan - Chattahoochee Chords & Tabs

 

Chattahoochee Chords & Tabs

Jackson Alan Chords & Tabs

Version: 2 Type: Tab 1 rating
1 star 2 stars 3 stars 4 stars 5 stars
comments

Chattahoochee Tab

Song:Chattahoochee
Artist:Alan Jackson
CD:Lot about Livin'/Little 'bout love
Tabbed by: Joe from Perham

I'm usually a Rock 'n' Roll kind of person, but I've always wanted to play this riff.
I was surprised at how easy it was, though.


e|---------------------------------------|
B|---------------------------------------|
G|---------------------------------------|
D|---------------------------------------|
A|--2/33--2/33--2/33--2/33--2h3p2--------|
E|--------------------------------5-3----|
[ Tab from: http://www.guitartabs.cc/tabs/j/jackson_alan/chattahoochee_tab_ver_2.html ]
e|---------------------------------------|
B|---------------------------------------|
G|----------------------------------5----|
D|--------------------------------5------|
A|--2/33--2/33--2/33--2/33--2h3p2--------|
E|---------------------------------------|

e|--------------------------------|
B|--------------------------------|
G|--------------------------------|
D|--------------------------------|
A|--2/33--2/33--3-3-----5b6r5-3---|
E|------------------5-3-----------|

e|-------------------------------------------------------------|
B|-------------------------------------------------------------|
G|--------------------------------2--5-2---2-------2-----------|
D|----------------------------2-5--------5-----2-5-------------|
A|--2/33--2/33--2/33--2/33--3---------3-3----5-------5b6r5-3---|
E|-------------------------------------------------------------|


Comments