Jackson Alan - Chattahoochee Chords & Tabs

 

Chattahoochee Chords & Tabs

Jackson Alan Chords & Tabs

Version: 1 Type: Tab 0 ratings
1 star 2 stars 3 stars 4 stars 5 stars
comments

Chattahoochee Tab

Chattahoochee

Intro:

E---------------------------------------------------------------------
B---------------------------------------------------------------------
G---------------------------------------------------------------------
D--4 measure rest----------------------1 measure rest-----------------
A----------------2/3--3--2/3--3--2/3-----------------2/3--3--2/3--3---
E---------------------------------------------------------------------

----------------------------------------------------------------------
----------------------------------------------------------------------
----------------------------------------------------------------------
------1 measure rest--------------------------------------------------
--2/3------------------2/3--3--2/3--3--2/3--3--2/3--3-----------------
-------------------------------------------------------6/5/3--5--3----

----------------------------------------------------------------------
----------------------------------------------------------------------
----------------------------------------------------------------------
---------------------------------------5--7--5------------------------
--2/3--3--2/3--3--2/3--3--2/3--3--5/7-----------2/3--3--2/3--3--3--3--
----------------------------------------------------------------------
[ Tab from: http://www.guitartabs.cc/tabs/j/jackson_alan/chattahoochee_tab.html ]
----------------------------------------------------------------------
----------------------------------------------------------------------
----------------------------------------------------------5-----------
---------------------------------------------------5--7------7---5--7-
------5b--3---2/3--3--2/3--3--2/3--3--2/3--3--5/7-------7--6---7------
-5--3-----------------------------------------------------------------

--------------
--------------
--------------
-----5--7-----
-6/7------5b-3
--------------


Solo:

----------------------------------------------------------------------
--------------------------------------------5---8--8--8--8--8---------
---------------0--0--0--0--0----------------5---7b-7b-7b-7b-7--(7)----
----------3-------------------------------5---------------------------
--------3---3--5b-5b-5b-5b-5-(5)-3--3-5/7-----7-----------------------
-1--3/5---------------------------------------------------------------

----------------------------------------------------------------------
---------------4-----4-----4--3-----6---------------7----5----3-------
-3~~~--4/5---4-5---4-5---4/5--4-----5---------------7----5----4-------
-----------3-----3-----3--------6/7---------------7---7----7----5-----
-----------------------------------------5--7/8/9---------------------
----------------------------------------------------------------------

------------------------
-3----------------------
-3/2/0------------------
--------2--0------------
-------------1--0-------
------------------3b--1-

That's all there is to it!!
KEEP COUNTRY MUSIC ROCKIN
EMAIL ME AT GMAN8610@AOL.COM IF U HAVE ANY REQUESTS FOR ANY COUNTRY
SONG
MORE COUNTRY TABS COMN SOON!!!

Comments