Jackson 5 - Ill Be There Chords & Tabs

 

Ill Be There Chords & Tabs

Jackson 5 Chords & Tabs

Version: 1 Type: Tab 0 ratings
1 star 2 stars 3 stars 4 stars 5 stars
comments

Ill Be There Tab

"i'll be there"
jackson 5.. tabbed by junior daquiz

-------------------------------------------------------
--5---5-----6/5---5---4--3---1-------------------------
--5---5---5-----------3--3---2-------------------------
-------------------------------------------------------
-------------------------------------------------------
-------------------------------------------------------

-------------------------8~~~~-------------------------
--5---5-----6/5---5------------------8-DRAG------------
--5---5---5--------------------------------------------
-------------------------------------------------------
-------------------------------------------------------
-------------------------------------------------------
[ Tab from: http://www.guitartabs.cc/tabs/j/jackson_5/ill_be_there_tab.html ]
--0---0p1-0----0-1---3---------------------------------
--1----------1-------3----3-3---3----1---1p3-1---1---3-
--0------------------0--------0---0--2---------2-------
--2------------------0---------------2-----------------
--3------------------2---------------0-----------------
---------------------3---------------------------------

--0---------0-----------------1---3--------------------
--0---0-0-----0------------1------3----3p0-------------
--1-------1-------2-----2---------0--------0------0----
--2---------------3---------------0--------------------
--2---------------3---------------2--------------------
--0-------------------------------3--------------------

-------------------------------------------------------
------1-1-----------------------------------------------
--2-----------------------------------------------------
--2-----------------------------------------------------
--0-----------------------------------------------------
-------------------------------------------------------
Comments