Jackson 5 - I Want You Back Chords & Tabs

 

I Want You Back Chords & Tabs

Jackson 5 Chords & Tabs

Version: 3 Type: Bass Tab 0 ratings
1 star 2 stars 3 stars 4 stars 5 stars
comments

I Want You Back Bass Tab

This is the right version.
Tabbed by Sean Shannon.
I want you back by The Jackson Five.

[ Tab from: http://www.guitartabs.cc/tabs/j/jackson_5/i_want_you_back_btab_ver_3.html ]
    Verse
G:------------------------------------------------------
D:-------1-3------------0-1-2-3---------------4-6-4-6------
A:---2-3-----4----1-3-4---------3-4-----6---6------------
E:-4--------------------------------4-6---4--------------
    Chorus
G:-------------------------------------------------------
D:-6-6-55-3-3-0-1-1----------1---1---0-1-2-3----------
A:------------------4-4-33-1---1---1---------3-4-----6--
E:-----------------------------------------------4-6---4-
    Bridge
G:---1----------------1----------------1--------------1----------
D:-3---------3------3----------3-----3----------5---3--------1--
A:-----3---4------------3-3--4-----------33-3-6--44--------3----
E:-------------4--4--------------4----------------------44------

G:---1--------------1-----------
D:-3----------5---3----1--------
A:-----33-3-6--44----3----------
E:----------------44------------
Comments