Jackson 5 - Can You Feel It Chords & Tabs

 

Can You Feel It Chords & Tabs

Jackson 5 Chords & Tabs

Version: 1 Type: Bass Tab 0 ratings
1 star 2 stars 3 stars 4 stars 5 stars
comments

Can You Feel It Bass Tab

Jackson 5 - Can you feel it

play
E|-----------|
A|-----4---4-|
D|-4-4---4---|
G|-----------|
throughout

can you feel it...
E|--------------|
A|-5-4-2----5-4-|
D|--------2-----|
G|--------------|
[ Tab from: http://www.guitartabs.cc/tabs/j/jackson_5/can_you_feel_it_btab.html ]
then during Michael's brilliant part
E|----------------------------3---------------------|
A|-----4---4--22-4-5----5-4--------4---4------4---4-|
D|-4-4---4-----------22-----4--4-4---4----4-4---4---|
G|--------------------------------------------------|

if you listen good you'll hear something like this at 1:38
E|-------------01222--------------|
A|-----4---4--------2-5-4-2---5-4-|
D|-4-4---4---4--------------2-----|
G|--------------------------------|

tabbed by dION (kantongerecht@hotmail.com)
Comments