Jackson - All The Way Chords & Tabs

 

All The Way Chords & Tabs

Jackson Chords & Tabs

Version: 1 Type: Tab 0 ratings
1 star 2 stars 3 stars 4 stars 5 stars
comments

All The Way Tab

   
Band   : Jackson
Song   : All The Way         - written by Chris Shiflett
Album  : Jackson EP
Tuning : Drop-D

tabbed by Peter Tom Takaro
--------------------------
errors&comments&requests on nouseforaname@freemail.hu

keys,

h  = hammer on
x  = mute


***Intro***
E|---------------------------------|  
B|---------------------------------|
G|---------------------------------|
D|-4-4-4-4---------7-7-7-7-7-7-7-7-|
A|-4-4-4-4-7-7-7-7-7-7-7-7-7-7-7-7-|
D|-4-4-4-4-6-6-6-6-7-7-7-7-7-7-7-7-|
 
E|---------------------------------|  
B|---------------------------------|
G|---------------------------------|
D|-4-4-4-4---------7-7-7-7-2-2-2-2-|
A|-4-4-4-4-7-7-7-7-7-7-7-7-2-2-2-2-|
D|-4-4-4-4-6-6-6-6-7-7-7-7-2-2-2-2-|

E|---------------------------------------------------------|  
B|---------------------------------------------------------|
G|---------------------------------------------------------|
D|-4-4-4-4-2-2-2-2-0-0-0-0-7-7-7-7-2-2-2-2-2-2-2-2-2-2-2-2-|
A|-4-4-4-4-2-2-2-2-0-0-0-0-7-7-7-7-2-2-2-2-2-2-2-2-2-2-2-2-|
D|-4-4-4-4-2-2-2-2-0-0-0-0-7-7-7-7-2-2-2-2-2-2-2-2-2-2-2-2-|

***Verse***
same as intro
(begins with volume control)
except the last  line is
E|-----------------------------------------------------------------|  
B|-----------------------------------------------------------------|
G|-----------------------------------------------------------------|
D|-4-4-4-4-2-2-2-2-0-0-0-0-7-7-7-7-2-2-2-2-2-2-2-2-----------------|
A|-4-4-4-4-2-2-2-2-0-0-0-0-7-7-7-7-2-2-2-2-2-2-2-2-4-4-4-4-4-4-4-4-|
D|-4-4-4-4-2-2-2-2-0-0-0-0-7-7-7-7-2-2-2-2-2-2-2-2-3-3-3-3-3-3-3-3-|

***Chorus***

E|---------------------------------| 
B|---------------------------------|
G|---------------------------------| x2
D|-4-4-4-4-2-2-2-2-0-0-0-0-0-0-0-0-|
A|-4-4-4-4-2-2-2-2-0-0-0-0-0-0-0-0-|
D|-4-4-4-4-2-2-2-2-0-0-0-0-0-0-0-0-|
[ Tab from: http://www.guitartabs.cc/tabs/j/jackson/all_the_way_tab.html ]
E|-----------------------------------------------------------------|  
B|-----------------------------------------------------------------|
G|-----------------------------------------------------------------|
D|-4-4-4-4-2-2-2-2-0-0-0-0-7-7-7-7-2-2-2-2-2-2-2-2-2-2-2-2---------|
A|-4-4-4-4-2-2-2-2-0-0-0-0-7-7-7-7-2-2-2-2-2-2-2-2-2-2-2-2-4-4-4-4-|
D|-4-4-4-4-2-2-2-2-0-0-0-0-7-7-7-7-2-2-2-2-2-2-2-2-2-2-2-2-3-3-3-3-|

***Solo***

E|--9---7--7-----7--0h7--------9---7--7----10-9----7--9----  
B|-10--10-10-10-10---10-10----10--10-10-10-----10-10-10----
G|-----------------------9---------------------------------
D|---------------------------------------------------------
A|---------------------------------------------------------
D|---------------------------------------------------------

E|--9---7--7-----7--0h7-----9--7---9-7-9-7-9-7-9-7-10-9-7----|  
B|-10--10-10-10-10---10-10-10-10--1010101010101010--------10-|
G|-----------------------9-----------------------------------|
D|-----------------------------------------------------------|
A|-----------------------------------------------------------|
D|-----------------------------------------------------------|

***Outro***
Gtr 1
E|---------------------------------| 
B|---------------------------------|
G|---------------------------------|
D|-4-4-4-4-2-2-2-2-0-0-0-0-0-0-0-0-|
A|-4-4-4-4-2-2-2-2-0-0-0-0-0-0-0-0-|
D|-4-4-4-4-2-2-2-2-0-0-0-0-0-0-0-0-|
Gtr 2
E|-----------------------------------------| 
B|-----------------------------------------|
G|-11-11-11-11-13-13-13-13-7-7-7-7-7-7-7-7-|
D|--x--x--x--x--x--x--x--x-x-x-x-x-x-x-x-x-|1st time________       
A|--9--9--9--9-11-11-11-11-5-5-5-5-5-5-5-5-|                \  
D|-----------------------------------------|                 \
Gtr 2                                                         |
E|-------------------------------------------------|          |
B|-------------------------------------------------|         /
G|-11-11-11-11-13-13-13-13-14-14-14-14-14-14-14-14-|        /
D|--x--x--x--x--x--x--x--x--x--x--x--x--x--x--x--x-|2nd time
A|--9--9--9--9-11-11-11-11-12-12-12-12-12-12-12-12-|
D|-------------------------------------------------|

rock & roll people,Have fun!
(Chris = God)
Comments