Jackass - Jackass Chords & Tabs

 

Jackass Chords & Tabs

Jackass Chords & Tabs

Version: 2 Type: Tab 0 ratings
1 star 2 stars 3 stars 4 stars 5 stars
comments

Jackass Tab

main riff
----------------------------------|
----------------------------------|
----------------------------------|   times=2
--7-7-7---5-5-5-------------------|
--5-5-5---3-3-3---5-5-5-5-5-5-5---|
------------------3-3-3-3-3-3-3---|


----------------------------------|
----------------------------------|
-------------------5-5-5-5-5-5-5--|
--7-7-7---5-5-5----3-3-3-3-3-3-3--|
--5-5-5---3-3-3-------------------|
----------------------------------|


----------------------------------|
----------------------------------|
----------------------------------|
--7-7-7---5-5-5-------------------|
--5-5-5---3-3-3---5-5-5-5-5-5-5---|
------------------3-3-3-3-3-3-3---|

[ Tab from: http://www.guitartabs.cc/tabs/j/jackass/jackass_tab_ver_2.html ]
solo brokin chords
----------/------------/-------------------------------------|
----------/------------/-------------------------------------|
-----7----/-------5----/-------------------------------------|
---7---7--/-----5---5--/------5------------5---------5-------| times=2
-5--------/---3--------/----5---5--------5---5---------5-----|
----------/------------/--3------------3-----------3---------|

----------------------------------|
----------------------------------|
----------------------------------|
--7-7-7---5-5-5-------------------| times 2
--5-5-5---3-3-3---5-5-5-5-5-5-5---|
------------------3-3-3-3-3-3-3---|


    p.m....       p.m...
-------------------------------------------|
-------------------------------------------|
-------------------------------------------|
-7----7-7-7---5----5-5--5------------------|
-5----5-5-5---3----3-3--5----5-5-5-5-5-5-5-|
-----------------------------3-3-3-3-3-3-3-|
Comments