Jack Off Jill - Swollen Chords & Tabs

 

Swollen Chords & Tabs

Jack Off Jill Chords & Tabs

Version: 1 Type: Bass Tab 0 ratings
1 star 2 stars 3 stars 4 stars 5 stars
comments

Swollen Bass Tab

   
Standard Tuning. Amp Mid and High equalizers up, tone knob on bass low.
Jack Off Jill
Swollen
Bass tab

Intro/Verse 
G|----------------------------| 
D|----------------------------| 
A|----------------3-3-3-2-2-0-| 
E|--2--2--0-0-2-2-------------| 

Chorus Fig. 1 {"Why are my lips so.."} 
G|---------------------------------| 
D|---------------------------------| 
A|-3-3-3-3-3-3-3-3-2-2-2-2-2-2-2-2-| 
E|---------------------------------| 
[ Tab from: http://www.guitartabs.cc/tabs/j/jack_off_jill/swollen_btab.html ]
Fig. 2 {"Why are my...are my"} 
G|---------------------------------| 
D|---------------------------------| 
A|-3-3-3-3-3-3-3-3-2---2---2---2---| 
E|---------------------------------| 

Fig. 3 {"Why are my lips so swollen"} 
G|------------------------------------------------| 
D|------------------------------------------------| 
A|-3-3-3-3-3-3-3-3-2-2-2-2-2-2-2-2--2-0-2-0-2-0-2-| 
E|------------------------------------------------| 

Fig. 3 - last [The third and final time the chorus is played, play Fig. 
1 and 2 as usual, then play Fig. 3 as above, but insert a rest instead of the -0-.] 
Tabbed by Ron Oniszczak Jr. Email him with any questions or comments.

====
Comments