Jack Off Jill - Choke Chords & Tabs

 

Choke Chords & Tabs

Jack Off Jill Chords & Tabs

Version: 2 Type: Tab 0 ratings
1 star 2 stars 3 stars 4 stars 5 stars
comments

Choke Tab

Jack Off Jill - Choke (3:59)
Track 16 - Humid Teenage Mediocrity

Great song! Very heavy distortion with Pm throughout. Hope you like it!

No guitar until 0:35

Verse
e------------------------------------------------------------------------|
B------------------------------------------------------------------------|
G------------------------------------------------------------------------|
D------------------------------------------------------------------------|
A------------------7-7-7-6-6-6-5-5---------------------------------------|
E--0-0-0-0-0-0-0-0-----------------0-0-0-0-0-0-0-0-2-2-2-3-3-3-5-5-------| x 7
   Pm.................................................................

Pre Chorus 1:23
e------------------------------------------------------------------------|
B------------------------------------------------------------------------|
G-------9-----9---------9-----9~8----------------------------------------|
D-------9-----9---------9-----9~8----------------------------------------|
A-------7-----7---------7-----7~6----------------------------------------|
E-0-0-0---0-0---0-0-0-0---0----------------------------------------------| x 4
  Pm....  Pm.   Pm.....   Pm.

Chorus 1:36
e------------------------------------------------------------------------|
B------------------------------------------------------------------------|
G-7-7-7-7-7-5-5-5-5-5-5-7-7-7-7-7-4-4-4-4-4-5----------------------------|
D-7-7-7-7-7-5-5-5-5-5-5-7-7-7-7-7-4-4-4-4-4-5----------------------------|
A-5-5-5-5-5-3-3-3-3-3-3-5-5-5-5-5-2-2-2-2-2-3----------------------------|
E------------------------------------------------------------------------| X 2

Verse 1:50
e------------------------------------------------------------------------|
B------------------------------------------------------------------------|
G------------------------------------------------------------------------|
D------------------------------------------------------------------------|
A------------------7-7-7-6-6-6-5-5---------------------------------------|
E--0-0-0-0-0-0-0-0-----------------0-0-0-0-0-0-0-0-2-2-2-3-3-3-5-5-------| x 5
   Pm.................................................................
[ Tab from: http://www.guitartabs.cc/tabs/j/jack_off_jill/choke_tab_ver_2.html ]
Pre Chorus 2:24
e------------------------------------------------------------------------|
B------------------------------------------------------------------------|
G-------9-----9---------9---9~8------------------------------------------|
D-------9-----9---------9---9~8------------------------------------------|
A-------7-----7---------7---7~6------------------------------------------|
E-0-0-0---0-0---0-0-0-0---0----------------------------------------------| x 4
  Pm....  Pm.   Pm.....   Pm.

Chorus 2:38
e------------------------------------------------------------------------|
B------------------------------------------------------------------------|
G-7-7-7-7-7-5-5-5-5-5-5-7-7-7-7-7-4-4-4-4-4-5----------------------------|
D-7-7-7-7-7-5-5-5-5-5-5-7-7-7-7-7-4-4-4-4-4-5----------------------------|
A-5-5-5-5-5-3-3-3-3-3-3-5-5-5-5-5-2-2-2-2-2-3----------------------------|
E------------------------------------------------------------------------| X 2

Verse 2:51
e------------------------------------------------------------------------|
B------------------------------------------------------------------------|
G------------------------------------------------------------------------|
D------------------------------------------------------------------------|
A------------------7-7-7-6-6-6-5-5---------------------------------------|
E--0-0-0-0-0-0-0-0-----------------0-0-0-0-0-0-0-0-2-2-2-3-3-3-5-5-------| x5
   Pm.................................................................

Pre Chorus 3:26
e------------------------------------------------------------------------|
B------------------------------------------------------------------------|
G-------9-----9---------9---9~8------------------------------------------|
D-------9-----9---------9---9~8------------------------------------------|
A-------7-----7---------7---7~6------------------------------------------|
E-0-0-0---0-0---0-0-0-0---0----------------------------------------------| x 4
  Pm....  Pm.   Pm.....   Pm.

Chorus 3:40

e------------------------------------------------------------------------|
B------------------------------------------------------------------------|
G-7-7-7-7-7-5-5-5-5-5-5-7-7-7-7-7-4-4-4-4-4-5--(7)-----------------------|
D-7-7-7-7-7-5-5-5-5-5-5-7-7-7-7-7-4-4-4-4-4-5--(7)-----------------------|
A-5-5-5-5-5-3-3-3-3-3-3-5-5-5-5-5-2-2-2-2-2-3--(5)-----------------------|
E------------------------------------------------------------------------| X 2
 Finish on the () Note.


Thats it me'thinks. Any Problems/Corrrections/Requests, E-mail me at 
Ill do my best. Happy guitaring! :)
Comments