Jack Off Jill - Angels Fuck Chords & Tabs

 

Angels Fuck Chords & Tabs

Jack Off Jill Chords & Tabs

Version: 5 Type: Tab

Angels Fuck Tab

Angels Fuck - Jack Off Jill

e|-----3-----3-----3-----3-----3-----3-----3-----3--|
b|--6-----6-----5-----5-----4-----4-----3-----3-----|
g|--------------------------------------------------|
d|--------------------------------------------------|
a|--------------------------------------------------|
E|--------------------------------------------------|

e|-----3-----3-----3-----3-----3-----3-----3-----3--|
b|--6-----6-----5-----5-----4-----4-----3-----3-----|
g|--------------------------------------------------|
d|--------------------------------------------------|
a|--------------------------------------------------|
E|--------------------------------------------------|

e|-----3-----3-----3-----3-----3-----3-----3-----3--|
b|--6-----6-----5-----5-----4-----4-----3-----3-----|
g|--------------------------------------------------|
d|--------------------------------------------------|
a|--------------------------------------------------|
E|--------------------------------------------------|

e|-----3-----3-----3-----3-----3-----3-----3-----3--|
b|--6-----6-----5-----5-----4-----4-----3-----3-----|
g|--------------------------------------------------|
d|--------------------------------------------------|
a|--------------------------------------------------|
E|--------------------------------------------------|

e|-----3-----3-----3-----3-----3-----3-----3-----3--|
b|--6-----6-----5-----5-----4-----4-----3-----3-----|
g|--------------------------------------------------|
d|--------------------------------------------------|
a|--------------------------------------------------|
E|--------------------------------------------------|

e|-----3-----3-----3-----3-----3-----3-----3-----3--|
b|--6-----6-----5-----5-----4-----4-----3-----3-----|
g|--------------------------------------------------|
d|--------------------------------------------------|
a|--------------------------------------------------|
E|--------------------------------------------------|

e|-----3-----3-----3-----3-----3-----3-----3-----3--|
b|--6-----6-----5-----5-----4-----4-----3-----3-----|
g|--------------------------------------------------|
d|--------------------------------------------------|
a|--------------------------------------------------|
E|--------------------------------------------------|

e|-----3-----3-----3-----3-----3-----3-----3-----3--|
b|--6-----6-----5-----5-----4-----4-----3-----3-----|
g|--------------------------------------------------|
d|--------------------------------------------------|
a|--------------------------------------------------|
E|--------------------------------------------------|

e|-----3-----3-----3-----3-----3-----3-----3-----3--|
b|--6-----6-----5-----5-----4-----4-----3-----3-----|
g|--------------------------------------------------|
d|--------------------------------------------------|
a|--------------------------------------------------|
E|--------------------------------------------------|

e|-------------------------------------------------------------------------------|
b|-------------------------------------------------------------------------------|
g|--------------------10--10--10--10--10--10--9--9--9--9--9--9--8--8--8--8--8--8-|
d|--5--5--5--5--5--5--10--10--10--10--10--10--9--9--9--9--9--9--8--8--8--8--8--8-|
a|--5--5--5--5--5--5---8---8---8---8---8---8--7--7--7--7--7--7--6--6--6--6--6--6-|
E|--3--3--3--3--3--3-------------------------------------------------------------|

e|-------------------------------------------------------------------------------|
b|-------------------------------------------------------------------------------|
g|--------------------10--10--10--10--10--10--9--9--9--9--9--9--8--8--8--8--8--8-|
d|--5--5--5--5--5--5--10--10--10--10--10--10--9--9--9--9--9--9--8--8--8--8--8--8-|
a|--5--5--5--5--5--5---8---8---8---8---8---8--7--7--7--7--7--7--6--6--6--6--6--6-|
E|--3--3--3--3--3--3-------------------------------------------------------------|

e|-------------------------------------------------------------------------------|
b|-------------------------------------------------------------------------------|
g|--------------------10--10--10--10--10--10--9--9--9--9--9--9--8--8--8--8--8--8-|
d|--5--5--5--5--5--5--10--10--10--10--10--10--9--9--9--9--9--9--8--8--8--8--8--8-|
a|--5--5--5--5--5--5---8---8---8---8---8---8--7--7--7--7--7--7--6--6--6--6--6--6-|
E|--3--3--3--3--3--3-------------------------------------------------------------|

e|-------------------------------------------------------------------------------|
b|-------------------------------------------------------------------------------|
g|--------------------10--10--10--10--10--10--9--9--9--9--9--9--8--8--8--8--8--8-|
d|--5--5--5--5--5--5--10--10--10--10--10--10--9--9--9--9--9--9--8--8--8--8--8--8-|
a|--5--5--5--5--5--5---8---8---8---8---8---8--7--7--7--7--7--7--6--6--6--6--6--6-|
E|--3--3--3--3--3--3-------------------------------------------------------------|

e|-----3-----3-----3-----3-----3-----3-----3-----3--|
b|--6-----6-----5-----5-----4-----4-----3-----3-----|
g|--------------------------------------------------|
d|--------------------------------------------------|
a|--------------------------------------------------|
E|--------------------------------------------------|

e|-----3-----3-----3-----3-----3-----3-----3-----3--|
b|--6-----6-----5-----5-----4-----4-----3-----3-----|
g|--------------------------------------------------|
d|--------------------------------------------------|
a|--------------------------------------------------|
E|--------------------------------------------------|
[ Tab from: http://www.guitartabs.cc/tabs/j/jack_off_jill/angels_fuck_tab_ver_5.html ]
e|-----3-----3-----3-----3-----3-----3-----3-----3--|
b|--6-----6-----5-----5-----4-----4-----3-----3-----|
g|--------------------------------------------------|
d|--------------------------------------------------|
a|--------------------------------------------------|
E|--------------------------------------------------|

e|-----3-----3-----3-----3-----3-----3-----3-----3--|
b|--6-----6-----5-----5-----4-----4-----3-----3-----|
g|--------------------------------------------------|
d|--------------------------------------------------|
a|--------------------------------------------------|
E|--------------------------------------------------|

e|-----3-----3-----3-----3-----3-----3-----3-----3--|
b|--6-----6-----5-----5-----4-----4-----3-----3-----|
g|--------------------------------------------------|
d|--------------------------------------------------|
a|--------------------------------------------------|
E|--------------------------------------------------|

e|-----3-----3-----3-----3-----3-----3-----3-----3--|
b|--6-----6-----5-----5-----4-----4-----3-----3-----|
g|--------------------------------------------------|
d|--------------------------------------------------|
a|--------------------------------------------------|
E|--------------------------------------------------|

e|-------------------------------------------------------------------------------|
b|-------------------------------------------------------------------------------|
g|--------------------10--10--10--10--10--10--9--9--9--9--9--9--8--8--8--8--8--8-|
d|--5--5--5--5--5--5--10--10--10--10--10--10--9--9--9--9--9--9--8--8--8--8--8--8-|
a|--5--5--5--5--5--5---8---8---8---8---8---8--7--7--7--7--7--7--6--6--6--6--6--6-|
E|--3--3--3--3--3--3-------------------------------------------------------------|

e|-------------------------------------------------------------------------------|
b|-------------------------------------------------------------------------------|
g|--------------------10--10--10--10--10--10--9--9--9--9--9--9--8--8--8--8--8--8-|
d|--5--5--5--5--5--5--10--10--10--10--10--10--9--9--9--9--9--9--8--8--8--8--8--8-|
a|--5--5--5--5--5--5---8---8---8---8---8---8--7--7--7--7--7--7--6--6--6--6--6--6-|
E|--3--3--3--3--3--3-------------------------------------------------------------|

e|-------------------------------------------------------------------------------|
b|-------------------------------------------------------------------------------|
g|--------------------10--10--10--10--10--10--9--9--9--9--9--9--8--8--8--8--8--8-|
d|--5--5--5--5--5--5--10--10--10--10--10--10--9--9--9--9--9--9--8--8--8--8--8--8-|
a|--5--5--5--5--5--5---8---8---8---8---8---8--7--7--7--7--7--7--6--6--6--6--6--6-|
E|--3--3--3--3--3--3-------------------------------------------------------------|

e|-------------------------------------------------------------------------------|
b|-------------------------------------------------------------------------------|
g|--------------------10--10--10--10--10--10--9--9--9--9--9--9--8--8--8--8--8--8-|
d|--5--5--5--5--5--5--10--10--10--10--10--10--9--9--9--9--9--9--8--8--8--8--8--8-|
a|--5--5--5--5--5--5---8---8---8---8---8---8--7--7--7--7--7--7--6--6--6--6--6--6-|
E|--3--3--3--3--3--3-------------------------------------------------------------|

e|--------------------------------------------------------------------------|
b|--------------------------------------------------------------------------|
g|--------------------------------------5--5--5--5--5--5--8--8--8--8--8--8--|
d|--5--5--5--5--5--5--8--8--8--8--8--8--5--5--5--5--5--5--8--8--8--8--8--8--|
a|--5--5--5--5--5--5--8--8--8--8--8--8--3--3--3--3--3--3--6--6--6--6--6--6--|
E|--3--3--3--3--3--3--6--6--6--6--6--6--------------------------------------|

e|--------------------------------------------------------------------------|
b|--------------------------------------------------------------------------|
g|--------------------------------------5--5--5--5--5--5--8--8--8--8--8--8--|
d|--5--5--5--5--5--5--8--8--8--8--8--8--5--5--5--5--5--5--8--8--8--8--8--8--|
a|--5--5--5--5--5--5--8--8--8--8--8--8--3--3--3--3--3--3--6--6--6--6--6--6--|
E|--3--3--3--3--3--3--6--6--6--6--6--6--------------------------------------|

e|--------------------------------------------------------------------------|
b|--------------------------------------------------------------------------|
g|--------------------------------------5--5--5--5--5--5--8--8--8--8--8--8--|
d|--5--5--5--5--5--5--8--8--8--8--8--8--5--5--5--5--5--5--8--8--8--8--8--8--|
a|--5--5--5--5--5--5--8--8--8--8--8--8--3--3--3--3--3--3--6--6--6--6--6--6--|
E|--3--3--3--3--3--3--6--6--6--6--6--6--------------------------------------|

e|--------------------------------------------------------------------------|
b|--------------------------------------------------------------------------|
g|--------------------------------------5--5--5--5--5--5--8--8--8--8--8--8--|
d|--5--5--5--5--5--5--8--8--8--8--8--8--5--5--5--5--5--5--8--8--8--8--8--8--|
a|--5--5--5--5--5--5--8--8--8--8--8--8--3--3--3--3--3--3--6--6--6--6--6--6--|
E|--3--3--3--3--3--3--6--6--6--6--6--6--------------------------------------|

e|--------------------------------------------------------------------------|
b|--------------------------------------------------------------------------|
g|--------------------------------------5--5--5--5--5--5--8--8--8--8--8--8--|
d|--5--5--5--5--5--5--8--8--8--8--8--8--5--5--5--5--5--5--8--8--8--8--8--8--|
a|--5--5--5--5--5--5--8--8--8--8--8--8--3--3--3--3--3--3--6--6--6--6--6--6--|
E|--3--3--3--3--3--3--6--6--6--6--6--6--------------------------------------|

e|--------------------------------------------------------------------------|
b|--------------------------------------------------------------------------|
g|--------------------------------------5--5--5--5--5--5--8--8--8--8--8--8--|
d|--5--5--5--5--5--5--8--8--8--8--8--8--5--5--5--5--5--5--8--8--8--8--8--8--|
a|--5--5--5--5--5--5--8--8--8--8--8--8--3--3--3--3--3--3--6--6--6--6--6--6--|
E|--3--3--3--3--3--3--6--6--6--6--6--6--------------------------------------|