Jack Of All Trades - 6 Days Later Chords & Tabs

 

6 Days Later Chords & Tabs

Jack Of All Trades Chords & Tabs

Version: 1 Type: Tab 0 ratings
1 star 2 stars 3 stars 4 stars 5 stars
comments

6 Days Later Tab

-------------------------------------------------------------------------------
			     6 Days Later - Jack of all Trades
-------------------------------------------------------------------------------

By: John Rent

Great song by JOAT. I love this song any corrections are welcome.

Intro
e|---------------
B|---------------  Reapeat 4 times
G|---------5-----
D|------------5--
A|----3-3--------
E|---------------

Verse 1
e|---------------------------------------------------------------------------
B|---------------------------------------------------------------------------
G|---5-x-x-x-x--7-x-x-x-x--4-x-x-x-x--5-x-x-x-x-----Repeat as many times-----
D|---5-x-x-x-x--7-x-x-x-x--4-x-x-x-x--5-x-x-x-x------------------------------
A|---3-x-x-x-x--5-x-x-x-x--2-x-x-x-x--3-x-x-x-x-----as needed----------------
E|---------------------------------------------------------------------------

Pre Verse 2 : Verse 1 without mute and heavy distortion
[ Tab from: http://www.guitartabs.cc/tabs/j/jack_of_all_trades/6_days_later_tab.html ]
Chorus
e|---------------------------------------------------------------------------
B|---------------------------------------------------------------------------
G|---------------------------------------------------------------------------
D|--7---5---9---7-----Repeat as many times-----------------------------------
A|--7---5---9---7------------------------------------------------------------
E|--5---3---7---5-----as needed----------------------------------------------

Outro 
e|---------------------------------------------------------------------------
B|---------------------------------------------------------------------------
G|----5--9-10-----5--9-10----------------------------------------------------
D|----5--9-10-----5--9-10----------------------------------------------------
A|----3--7-8------3--7-8-----------------------------------------------------
E|---------------------------------------------------------------------------

End on C

Structure:	Intro 		x4
		Verse 		x2
		Pre Verse 	x2
		Verse 		x2
		Chorus 		x4
		Verse 		x2
		Chorus 		x8
		Outro
Comments