Jack Johnson - The News Correct Chords & Tabs

 

The News Correct Chords & Tabs

Jack Johnson Chords & Tabs

Version: 1 Type: Tab 1 rating
1 star 2 stars 3 stars 4 stars 5 stars
comments

The News Correct Tab

   
the news by jack johnson

                A                                Bm
[-------------------------------------------------------------------](repeat)
[---2-----2-----2---2-----2-----2-----3-----3-----3---3-----3-----3-]
[-----2-----2---------2-----2-----------4-----4---------4-----4-----]
[-------2-----2---------2-----2-----------4-----4---------4-----4---]
[-0---------------0-----------------2---------------2---------------]
[-------------------------------------------------------------------]
[ Tab from: http://www.guitartabs.cc/tabs/j/jack_johnson/the_news_correct_tab.html ]
                 A                               Bm(on 4th)     
[-------------------------------------------------------------------]
[---2-----2-----2---2-----2-----2-----5-----5-----5---5-----5-----5-]
[-----2-----2---------2-----2-----------6-----6---------6-----6-----]
[-------2-----2---------2-----2-----------6-----6---------6-----6---]
[-0---------------0-----------------4---------------4---------------]
[-------------------------------------------------------------------]

              Bm                         D               Dm
[------------------------------------3-----3-----3---1-----1-----1--]
[---3-----3-----3---3-----3-----3------2-----2---------3-----3------]
[-----4-----4---------4-----4------------3-----3---------2-----2----]
[-------4-----4---------4-----4----0---------------0----------------]
[-2---------------2-------------------------------------------------]
[-------------------------------------------------------------------]

              A                                 Bm
[-------------------------------------------------------------------]
[---2-----2-----2---2-----2-----2-----3-----3-----3---3-----3-----3-]
[-----2-----2---------2-----2-----------4-----4---------4-----4-----]
[-------2-----2---------2-----2-----------4-----4---------4-----4---]
[-0---------------0-----------------2---------------2---------------]
[-------------------------------------------------------------------]

Comments