Jack Johnson - Taylor Chords & Tabs

 

Taylor Chords & Tabs

Jack Johnson Chords & Tabs

Version: 4 Type: Tab 0 ratings
1 star 2 stars 3 stars 4 stars 5 stars
comments

Taylor Tab

Taylor 
by Jack Johnson

Great Song!!!!  This is my first tab so here it goes!!!!

Intro/Outro
E-----xx--------------------xx--------------xx------------------xx------
B-----xx--------------------xx--------------xx------------------xx------
G-----xx--------------------xx--------------xx------------------xx------
D-----xx--------------------xx--------------xx-1h3p1-1p0--------xx------  
A--1h3xx--1h3p1-1--1--------xx-----1-2-0-2/3xx------3---3p1p0---xx------
E-----xx-------3----3p1p0h11xx--123---------xx---------------011xx------

E----------------------xx----------------------xx------
B----------------------xx----------------------xx------
G----------------------xx----------------------xx------
D----------------------xx-3-3h5-5-3-3-2p0------xx------
A-----1---1---1---1-1/3xx----------------3p0---xx------
E--1h3-1h3-1h3-1h3-----xx-------------------11-xx------
[ Tab from: http://www.guitartabs.cc/tabs/j/jack_johnson/taylor_tab_ver_4.html ]
E----0-0-xx--0-0--0-0-0-0-0-0-0-------0------------
B----4-4-xx--1-1--1/5-5-3-3-1-1-----1-1------------
G----2-2-xx--0-0--0-0-0-0-0-0-0--5p3--2------------
D----3-3-xx--2-2----------------------3------------
A----3-3-xx--3-3-----------------------------------
E--------xx----------------------------------------


Verse
E--0-0-0-0---0-0-0-0---0-0-0-0---1-1-1-1-------------
B--1-1-1-1---1-1-1-1---1-1-1-1---1-1-1-1-------------
G--0-0-0-0---0-0-0-0---0-0-0-0---2-2-2-2-------------
D--2-2-2-2---0-0-0-0---2-2-2-2---3-3-3-3-------------
A--3-3-3-3---2-2-2-2---0-0-0-0---3-3-3-3-------------
E--0-0-0-0---0-0-0-0---0-0-0-0---1-1-1-1-------------


Bridge
E--0-0-0-0/0-0-0-0/0-0-0-0/0--0--0--0-----------------------------------
B--1-1-1-1/3-3-3-3/6-6-6-6/8--8--8--8-----------------------------------
G--0-0-0-0/0-0-0-0/0-0-0-0/0--0--0--0-----------------------------------
D--2-2-2-2/4-4-4-4/7-7-7-7/9--9--9--9----------------------------------- x2
A--3-3-3-3/5-5-5-5/8-8-8-8/10-10-10-10----------------------------------
E--0-0-0-0/0-0-0-0/0-0-0-0/0--0--0--0-----------------------------------


Thats it!!!!
Im out!!!
Gibson 86
Comments