Jack Johnson - Symbol In My Driveway Chords & Tabs

 

Symbol In My Driveway Chords & Tabs

Jack Johnson Chords & Tabs

Version: 2 Type: Tab 0 ratings
1 star 2 stars 3 stars 4 stars 5 stars
comments

Symbol In My Driveway Tab

   
-------------------------------------------------------------------------------
			     Symbol in my Driveway - Jack Johnson
-------------------------------------------------------------------------------
Tabbed by:Michael Moser
Email:Snowdude26@hotmail.com

Tuning:EADGBe
[ Tab from: http://www.guitartabs.cc/tabs/j/jack_johnson/symbol_in_my_driveway_tab_ver_2.html ]
e|---------------------------------------------------------------------------|
B|---------------------------------------------------------------------------|
G|---------------------------------------------------------------------------|
D|--------------------------------9-9-11-9-9-9-11-9-9-9-11-9-9-9-8-8---------|
A|7-7-9-7-7-7-9-7-7-7-9-7-7-7-9-7-7-7-7--7-7-7--7-7-7-7-7--7-7-7-6-6---------|
E|5-5-5-5-5-5-5-5-5-5-5-5-5-5-5-5--------------------------------------------|

e|---------------------------------------------------------------------------|
B|---------------------------------------------------------------------------|
G|---------------------------------------------------------------------------|
D|7-7-9-7-7-7-9-7-7-7-9-7-7-7-9-7-----------------9-9-11-9-9-9-11-9----------|
A|5-5-5-5-5-5-5-5-5-5-5-5-5-5-5-5-7-7-9-7-7-7-9-7-7-7-7--7-7-7-7--7----------|
E|--------------------------------5-5-5-5-5-5-5-5----------------------------|
Start over and repeat.
E-mail mistakes to Snowdude26@hotmail.com




| /  slide up
| \  slide down
| h  hammer-on
| p  pull-off
| ~  vibrato
| +  harmonic
| x  Mute note
===============================================================================
Comments