Jack Johnson - Sexi Plexi Chords & Tabs

 

Sexi Plexi Chords & Tabs

Jack Johnson Chords & Tabs

Version: 1 Type: Bass Tab 0 ratings
1 star 2 stars 3 stars 4 stars 5 stars
comments

Sexi Plexi Bass Tab

SEXI PLEXI

All music and lyrics written by and property of Jack Johnson
Transcribed by Jai Mitchell
jai_mitchell@yahoo.com
http://members.optushome.com.au/jaimitchell

Once again, a correction after seeing him play it live.. 

BASS TAB
VERSE
-----------------------
-----------------------
-------4----2--2-----2-
-2---2----2------2-2---

PRE-CHORUS
----------------------------
----------------------------
-------4--------------------
-2---2----2-3-3---3-5-5---5-
[ Tab from: http://www.guitartabs.cc/tabs/j/jack_johnson/sexi_plexi_btab.html ]
CHORUS
---------------------------------
---------------------------------
---------------------------------
-7-7---7-5-5---5-3-3---3-2-2---2-

CHORUS END
---------------------------------
---------------------------------
---------------------------------
-7-7---7-7-7---7-7-7---7-7-7---7-

SONG ORDER

VERSE [x4]
PRE-CHORUS
CHORUS [x2]
CHORUS END

VERSE [x3]
PRE-CHORUS
CHORUS [x2]

VERSE [x6]-starting on the Bm the first time
PRE-CHORUS
CHORUS [x2]
end on first note of CHORUS END
Comments