Jack Johnson - Rodeo Clowns Chords & Tabs

 

Rodeo Clowns Chords & Tabs

Jack Johnson Chords & Tabs

Version: 5 Type: Tab

Rodeo Clowns Tab

Rodeo Clowns
"Jack Johnnson"

Tabbed by Kyle

Such an awesome duo guitar song for the beach :) I never saw a version tabbed out with 
whole solo..... so here it goes.


Intro & Verse

e |-4--2--5--4---|
B |-5--2--5--4---|
G |-6--3--6--5---|
D |-6--4--7--6---|
A |-4--4--7--6---|
E |----2--5--4---|

(make sure to palm mute between switching chords)

Chorus
"with the clown yeah yeah yeah......"

e |-4--4--5--2--|
B |-5--4--5--2--|
G |-6--5--7--3--|
D |-6--6--6--4--|
A |-4--6--6--4--|
E |----4--5--2--|


First Guitar - Same as Chorus for Solo

Second Guitar -  Solo (By G Love)
"Common"

e-----------------------------------------------|
b-----------------------------------------------|
g-------------4---4-----------------------------|
d------2-4-/6---6---6/4--2-------2--------------|
a--/4----------------------4-2-4----4-----------|
E-----------------------------------------------|

[ Tab from: http://www.guitartabs.cc/tabs/j/jack_johnson/rodeo_clowns_tab_ver_5.html ]
e-----------------------------------------------|
b-----------------------------------------------|
g------------4---4/6---4------------------------|
d-----2-4-/6---6---------6/4-2------------------|
a--/4---------------------------4---------------|
E-----------------------------------------------|

e-----------------------------------------------|
b-----------------------------------------------|
g------------4---4------------------------------|
d-----2-4-/6---6---6/4-2-------2-/4-2-----------|
a--/4--------------------4-2-4------------------|
E-----------------------------------------------|

e------------------------------------------------|
b------------------------------------------------|
g-----------4---4-/6-4-------------------- 4b----|
d----2-4-/6---6--------6/4--2-------2-4-5-5b-----|
a-/4------------------------------/4-------------|
E------------------------------------------------|

*WHISTLE*
-
e--------------------------------------------------------------------|
b--------------------------------------------------------------------|
g------9h11---11b---11b---9---------------9h11--11b---11b---9b-------|
d-/11------------------------11-------/11----------------------------|
a--------------------------------------------------------------------|
E--------------------------------------------------------------------|
*repeat*

(Bends arn't necessary but give it a little more feeling)


{Ending are same Chords as Verse}

That's pretty much it! Play it up