Jack Johnson - Rodeo Clowns Chords & Tabs

 

Rodeo Clowns Chords & Tabs

Jack Johnson Chords & Tabs

Version: 2 Type: Tab 0 ratings
1 star 2 stars 3 stars 4 stars 5 stars
comments

Rodeo Clowns Tab

   
the intro

e |---------------------------------------------------------
B |-9-10-12-10-9h10p9-9---10-9----9-9---9-7----7-9-7-5-4h5-5-
G |-9-----------------9---9----9----9---9---6----5---------4-
D |-------------------10--9------9--8---7-----7--6---------6-
A |--------------------------------------------------------4-
E |---------------------------------------------------------
[ Tab from: http://www.guitartabs.cc/tabs/j/jack_johnson/rodeo_clowns_tab_ver_2.html ]
chords for the verses

  c#m f#m am g#m
e |-4--2--5--4---
B |-5--2--5--4---
G |-4--3--6--5---
D |-6--2--6--4---
A |-4--4--7--6---
E |----2--5--4---

and chord for the chorus

e |-4--4--5--2--
B |-5--4--5--2--
G |-4--5--7--3--
D |-6--4--5--2--
A |-4--6--6--4--
E |----4--5--2--

the chords have an easy strumming pattern that will be easy to pick up
Comments