Jack Johnson - Questions Chords & Tabs

 

Questions Chords & Tabs

Jack Johnson Chords & Tabs

Version: 3 Type: Tab

Questions Tab

Tuning: Standard

Capo II

p.= percussion (Jack beats the strings with the right hand)

INTRO:

This is the main part repeated through the whole song

         p.     p.     p.               p.     p.
e|---------------------------------------------------------------------||
B|---------------------------------------------------------------------||
G|-------------------------------------------------------2-------------||
D|---2h4--2--2-----2h4--2--0h2p0--0-----------------2-h4---4-p2---2----||
A|---0----0------0-0----0-------4---2h4--2--2---0/4-------------4------||
E|----------------------------------0----0--------0--------------------||

Repeat another time then play

         p.     p.     p.               p.     p.
e|---------------------------------------------------------------------|
B|----------------------5-----------5h7--5--------5h7--5---------------|
G|--------2-------/6------------------------6-------------6------------|
D|---2h4-----4-------------6-------------------------------------------|
A|---0----0------0-0----0----------------------------------------------|
E|--------------------------------0-0----0------0-0----0---------------|


         p.     p.     p.               p.     p.
e|---------------------------------------------------------------------|
B|----------------------5-----------5h7--5--------5h7-5---5------------|
G|--------2-------/6------------------------6-----------6--(6)---------|
D|---2h4-----4-------------6-------------------------------------------|
A|---0----0------0-0----0----------------------------------------------|
E|--------------------------------0-0----0------0-0-------0------------|


VERSE:
Jack starts to sing "Questions, I've got some questions...

         p.     p.     p.               p.     p.
e|---------------------------------------------------------------------|
B|---------------------------------------------------------------------|
G|-------------------------------------------------------2-------------|
D|---2h4--2--2-----2h4--2--0h2p0--0-----------------2-h4---4-p2---2----|
A|---0----0------0-0----0-------4---2h4--2--2---0/4-------------4------|
E|----------------------------------0----0--------0--------------------|

         p.     p.     p.               p.     p.
e|---------------------------------------------------------------------|
B|---------------------------------------------------------------------|
G|-------------------------------------------------------2-------------|
D|---2h4--2--4br-2-2h4--2--0h2p0--0-----------------2-h4---4-p2---2----|
A|---0----0--------0----0-------4---2h4--2--2---0/4-------------4------|
E|----------------------------------0----0--------0--------------------|

[ Tab from: http://www.guitartabs.cc/tabs/j/jack_johnson/questions_tab_ver_3.html ]
 when Jack sings                             ...please tell me that
         p.     p.     p.               p.     p.
e|---------------------------------------------------------------------|
B|---------------------------------------------------------------------|
G|---------------------------------------------------------------------|
D|---2h4--2--2-----2h4--2--0h2p0--0------------------------------------|
A|---0----0------0-0----0-------4---2h4--2--2---0-2h4--2--2------------|
E|----------------------------------0----0--------0----0---------------|


..there's time
         p.     p.     p.     p.       
e|---------------------------------------------------------------------|
B|---------------------------------------------------------------------|
G|---2h4--2-------------------------6\4-4\2-2--------------------------|
D|---0----0-------------4h6--4----------------4-4\2-2-0h2p0-0-----2----|
A|----------------------------------0----------------------4--2h4------|
E|---------------0-0----0----------------------------------------------|


Well you try...
         p.     p.     p.               p.     p.
e|----------------------------------------------------------------------|
B|----------------------5----5------5h7--5----5---5h7--5----5-----------|
G|--------2----2--/6------------------------6-------------6-------------|
D|---2h4-----4-------------6--------------------------------------------|
A|---0----0------0-0----0-----------------------------------------------|
E|--------------------------------0-0----0------0-0----0----------------|


         p.     p.     p.               p.     p.
e|----------------------------------------------------5-----------------|
B|----------------------5----5------5h7--5----5---5h7---7-5----5--------|
G|--------2----2--/6-------6----------------6----------------6----------|
D|---2h4-----4----------------------------------------------------------|
A|---0----0------0-0----0-----------------------------------------------|
E|--------------------------------0-0----0------0-0-------0-------------|


SOLO:
         p.     p.     p.     p.               p.
e|-------------------------5--------5h7p5-------------------------------|
B|-------------------5-/7----------------7-5----------------------------|
G|--------2-------/6--------------------------------6\4-2\1--1h2p1------|
D|---2h4-----4----------------------------------------------------2-0---|
A|---0----0------0-0----0---------------------------------------------4-|
E|--------------------------------0-0------0------0-0----0--------------|


         p.     p.     p.     p.               p.
e|-------------------------5---------------2h4p2p0--5-4-2---------------|
B|-------------------5-/7---------------------------------5-3p2---------|
G|--------2-------/6--------------------------------------------4-2-----|
D|---2h4-----4----------------------------------------------------------|
A|---0----0------0-0----0-----------------------------------------------|
E|--------------------------------0-0------0------0-0-------0-----------|


Then play the main part again



I think it's enough...the end is very similar to the intro
Listen to the song for rhythm