Jack Johnson - Posters Chords & Tabs

 

Posters Chords & Tabs

Jack Johnson Chords & Tabs

Version: 3 Type: Tab 0 ratings
1 star 2 stars 3 stars 4 stars 5 stars
comments

Posters Tab

jack johnson - posters (intro)

i've seen jack in concert and he plays something similar to this but
this is just my guess ....

[ Tab from: http://www.guitartabs.cc/tabs/j/jack_johnson/posters_tab_ver_3.html ]
|----5--------5-----7-9h12p9-------------------------------------|
|----5--------5-----7-------12-9h12p9----------------------------|
|----6--------6-----8----------------11--------------------------|
|----7--------7-----9--------------------------------------------|
|----7--------7-----9--------------------------------------------|
|-5~-5--5-x-5-5--7~-7--------------------------------------------|


|-----------------------------------------------------------------|
|-----------------------------------------------------------------|
|-----------------------------------------------------------------|
|------9h11p9----9-9-9/11-11--13--12--9-9-------------------------| 2x
|---11--------11--------------------------------------------------|
|-0---------------------------11--10--7-7-------------------------|

submitted by guido
Comments