Jack Johnson - No Other Way Chords & Tabs

 

No Other Way Chords & Tabs

Jack Johnson Chords & Tabs

Version: 2 Type: Tab 0 ratings
1 star 2 stars 3 stars 4 stars 5 stars
comments

No Other Way Tab

   
alright i tabbed this 'cos i couldn't find one single tab that was right. this is the 
on the making of in between dreams dvd.

Jack picks this whole song is with his thumb and first finger.
tuning: drop E to a D
u'll need a capo on the 3rd fret.

intro
e|-----------------------------------------------------|
B|-----------------------------------------------------|
G|------7------------------------0---------------------|
D|---7/9--9-9-----7\4----4----7/9--9-9------7\4----4---|  x2
A|-------------7/9-----5----------------7/9------5-----|
D|-0-------0--0---------0--0--------0--0----------0----|

e|--------------------------------------------------------------------|
B|--------------------------------------------------------------------|
G|--------------------------------------------------------------------|
D|-------4-------4/2--0---0--------5-------5-------5------------------|
A|---5-------5-----------------5-------5-------5-------5---5----------|
D|-----0-------0--------0---5----5-------5-------5-------5------------|

e|--------------------------------------------------------------------|
B|--------------------------------------------------------------------|
G|--------------------------------------------------------------------|
D|-------2-------2------2---------/--------5-------5-------5----------|
A|---2-------2------2------2---2--/----5-------5-------5--------5---5-|
D|-2---2-------2------2------2----/--5---5-------5-------5--------5---|

e|--------------------------------------------------------------------|
B|--------------------------------------------------------------------|
G|--------------------------------------------------------------------|
D|-------4-------4-------4-----------------5-------5-------5----------|
A|---5-------5-------5------5---5------5-------5-------5-------5---5--|
D|-0---0-------0-------0------0-----5----5-------5-------5-------5----|

e|--------------------------------------------------------------------|
B|--------------------------------------------------------------------|
G|--------------------------------------------------------------------|
D|-------2-------2------2---------/--------5-------5-------5----------|
A|---2-------2------2------2---2--/----5-------5-------5--------5---5-|
D|-2---2-------2------2------2----/--5---5-------5-------5--------5---|

e|--------------------------------------|
B|--------------------------------------|
G|--------------------------------------|
D|-------4-------4------7/5--0--------5-| X3 then
A|---5-------5--------------------5-----|
D|-0---0-------0-----0----------5---5---|
[ Tab from: http://www.guitartabs.cc/tabs/j/jack_johnson/no_other_way_tab_ver_2.html ]
e|--------------------------------------------------------------------|
B|--------------------------------------------------------------------|
G|--------------------------------------------------------------------|
D|-------2-------2------2---------/--------5-------5-------5----------|
A|---2-------2------2------2---2--/----5-------5-------5--------5---5-|
D|-2---2-------2------2------2----/--5---5-------5-------5--------5---|

e|--------------------------------------------------------------------|
B|--------------------------------------------------------------------|
G|--------------------------------------------------------------------|
D|-------4-------4/2--0---0--------5-------5-------5------------------|
A|---5-------5-----------------5-------5-------5-------5---5----------|
D|-0---0-------0--------0---5----5-------5-------5-------5------------|

e|--------------------------------------------------------------------|
B|--------------------------------------------------------------------|
G|--------------------------------------------------------------------|
D|-------2-------2------2---------/--------5-------5-------5----------|
A|---2-------2------2------2---2--/----5-------5-------5--------5---5-|
D|-2---2-------2------2------2----/--5---5-------5-------5--------5---|

e|--------------------------------------------------------------------|
B|--------------------------------------------------------------------|
G|--------------------------------------------------------------------|
D|-------4-------4-------4-----------------5-------5-------5----------|
A|---5-------5-------5------5---5------5-------5-------5-------5---5--|
D|-0---0-------0-------0------0-----5----5-------5-------5-------5----|

e|--------------------------------------------------------------------|
B|--------------------------------------------------------------------|
G|--------------------------------------------------------------------|
D|-------2-------2------2---------/--------5-------5-------5----------|
A|---2-------2------2------2---2--/----5-------5-------5--------5---5-|
D|-2---2-------2------2------2----/--5---5-------5-------5--------5---|

e|--------------------------------------|
B|--------------------------------------|
G|--------------------------------------|
D|-------4-------4------7/5--0--------5-| X3 then you go
A|---5-------5--------------------5-----|
D|-0---0-------0-----0----------5---5---|

e|--------------------------------------------------------------------|
B|--------------------------------------------------------------------|
G|--------------------------------------------------------------------|
D|-------2-------2------2---------/--------5-------5-------5----------|
A|---2-------2------2------2---2--/----5-------5-------5--------5---5-|
D|-2---2-------2------2------2----/--5---5-------5-------5--------5---|

  outro
e|-----------------------------------------------------|
B|-----------------------------------------------------|
G|------7------------------------0---------------------|
D|---7/9--9-9-----7\4----4----7/9--9-9------7\4----4---|  x2
A|-------------7/9-----5----------------7/9------5-----|
D|-0-------0--0---------0--0--------0--0----------0--0-|

And thats it the timing is the hardest part, just listen to the cd and u'll get it. its 
awesome song, hope you like it. if you do rate it.

any probs let me know  smales_15@hotmail.com
Comments