Jack Johnson - News Chords & Tabs

 

News Chords & Tabs

Jack Johnson Chords & Tabs

Version: 1 Type: Tab 0 ratings
1 star 2 stars 3 stars 4 stars 5 stars
comments

News Tab

this is pretty easy.. u can pick it with ur fingers or strum it.. pretty basic chord 
but im gonna take my time and tab it out for yall cuz most the ones are close but not 
here it goes

let me know if u like it :D   johnalanbobward@yahoo.com

intro:
-----------------------------------------|
------2-----2---2-----2---2---2----------|
-------2-----2---------2---2-------------|
---------2----2---------2---2------------|  X2
---0---------------0---------------------|
-----------------------------------------|


Verse: A billion people died on the news tonight
----------------------------------------------------------------------------|
------2-----2---2-----2---2---2------------3---3--3---3---3--3--------------|
-------2-----2---------2---2----------------4---4------4---4----------------|
---------2----2---------2---2----------------4---4------4---4---------------|
---0---------------0---------------------2-----------2----------------------|
----------------------------------------------------------------------------|

not so many cried at the devils sight                      well momma said,
----------------------------------------------------------------------------|
------2-----2---2-----2---2---2------------3---3--3---3---3--3--------------|
-------2-----2---------2---2----------------4---4------4---4----------------|
---------2----2---------2---2----------------4---4------4---4---------------|
---0---------------0---------------------2-----------2----------------------|
----------------------------------------------------------------------------|


Chorus: its just make believe         u cant believe everything u see
----------------------------------------------------------------------------|
------2-----2---2-----2---2---2------------5---5--5---5---5--5--------------|
-------2-----2---------2---2----------------6---6------6---6----------------|
---------2----2---------2---2----------------6---6------6---6---------------|
---0---------------0---------------------4-----------4----------------------|
----------------------------------------------------------------------------|

so baby close ur eyes to the lullabies                    on the
---------------------------------------------------------------------------|
------3----3---3-----3---3---3------------7---7--7---6---6--6--------------|
-------4----4---------4---4----------------7---7------7---7----------------|
--------4----4---------4---4----------------7---7------7---7---------------|
---2---------------2---------------------5-----------5---------------------|
---------------------------------------------------------------------------|

news tonight
----------------------------------------------------------------------------|
------2-----2---2-----2---2---2------------3---3--3---3---3--3--------------|
-------2-----2---------2---2----------------4---4------4---4----------------|
---------2----2---------2---2----------------4---4------4---4---------------|
---0---------------0---------------------2-----------2----------------------|
----------------------------------------------------------------------------|

whose the one to decide that it would be alright
----------------------------------------------------------------------------|
------2-----2---2-----2---2---2------------3---3--3---3---3--3--------------|
-------2-----2---------2---2----------------4---4------4---4----------------|
---------2----2---------2---2----------------4---4------4---4---------------|
---0---------------0---------------------2-----------2----------------------|
----------------------------------------------------------------------------|
      to put the music             behind the news tonight
----------------------------------------------------------------------------|
------2-----2---2-----2---2---2------------3---3--3---3---3--3--------------|
-------2-----2---------2---2----------------4---4------4---4----------------|
---------2----2---------2---2----------------4---4------4---4---------------|
---0---------------0---------------------2-----------2----------------------|
----------------------------------------------------------------------------|

you cant beleive everything you hear   the diajetic world is so unclear
----------------------------------------------------------------------------|
------2-----2---2-----2---2---2------------5---5--5---5---5--5--------------|
-------2-----2---------2---2----------------6---6------6---6----------------|
---------2----2---------2---2----------------6---6------6---6---------------|
---0---------------0---------------------4-----------4----------------------|
----------------------------------------------------------------------------|
[ Tab from: http://www.guitartabs.cc/tabs/j/jack_johnson/news_tab.html ]
  so baby close your   ears                           on the news tonight
---------------------------------------------------------------------------|
------3----3---3-----3---3---3------------7---7--7---6---6--6--------------|
-------4----4---------4---4----------------7---7------7---7----------------|
--------4----4---------4---4----------------7---7------7---7---------------|
---2---------------2---------------------5-----------5---------------------|
---------------------------------------------------------------------------|

                on the news tonight
---------------------------------------------------------------------------|
---------3---3--3---3---3--3-----------------2---2--2----2---2-------------|
----------4---4------4---4--------------------2---2-------2---2------------|
-----------4---4------4---4--------------------2---2-------2---2-----------|
-------2-----------2----------------------0------------0-------------------|
---------------------------------------------------------------------------|


the un obtrusive tones on the     news        tonight
---------------------------------------------------------------------------|
---------3---3--3---3---3--3-----------------2---2--2----2---2-------------|
----------4---4------4---4--------------------2---2-------2---2------------|
-----------4---4------4---4--------------------2---2-------2---2-----------|
-------2-----------2----------------------0------------0-------------------|
---------------------------------------------------------------------------|

and momma said                   mmmmmmmmmmm    hmmmmmmmmmmmm
----------------------------------------------------------------------------|
------2-----2---2-----2---2---2---------------------------------------------|
-------2-----2---------2---2----------------1---1---1----1---1--1-----------|
---------2----2---------2---2----------------2---2--------2---2-------------|
---0---------------0--------------------------2---2--------2---2------------|
-------------------------------------------0-----------0--------------------|

why dont the news casters when they read about people who die
----------------------------------------------------------------------------|
------2-----2---2-----2---2---2------------3---3--3---3---3--3--------------|
-------2-----2---------2---2----------------4---4------4---4----------------|
---------2----2---------2---2----------------4---4------4---4---------------|
---0---------------0---------------------2-----------2----------------------|
----------------------------------------------------------------------------|

atleast they could be decent enough.... tear in their eyes    well momma said
----------------------------------------------------------------------------|
------2-----2---2-----2---2---2------------3---3--3---3---3--3--------------|
-------2-----2---------2---2----------------4---4------4---4----------------|
---------2----2---------2---2----------------4---4------4---4---------------|
---0---------------0---------------------2-----------2----------------------|
----------------------------------------------------------------------------|

 its just make believe         u cant believe everything u see  ,
----------------------------------------------------------------------------|
------2-----2---2-----2---2---2------------5---5--5---5---5--5--------------|
-------2-----2---------2---2----------------6---6------6---6----------------|
---------2----2---------2---2----------------6---6------6---6---------------|
---0---------------0---------------------4-----------4----------------------|
----------------------------------------------------------------------------|

so baby close ur eyes to the lullabies                    on the
---------------------------------------------------------------------------|
------3----3---3-----3---3---3------------7---7--7---6---6--6--------------|
-------4----4---------4---4----------------7---7------7---7----------------|
--------4----4---------4---4----------------7---7------7---7---------------|
---2---------------2---------------------5-----------5---------------------|
---------------------------------------------------------------------------|

news tonight
----------------------------------------------------------------------------|
------2-----2---2-----2---2---2------------3---3--3---3---3--3--------------|
-------2-----2---------2---2----------------4---4------4---4----------------|
---------2----2---------2---2----------------4---4------4---4---------------|
---0---------------0---------------------2-----------2----------------------|
----------------------------------------------------------------------------|

END:
-------------|
-------2-----|
------2------|
-----2-------|
---0---------|
-------------|
Comments