Jack Johnson - Middle Man Chords & Tabs

 

Middle Man Chords & Tabs

Jack Johnson Chords & Tabs

Version: 3 Type: Bass Tab 0 ratings
1 star 2 stars 3 stars 4 stars 5 stars
comments

Middle Man Bass Tab

This is a very simplified version of the song.. and I couldn't really figure out
the pre-chorus/post-chorus stuff so that's why I just let those cords ring. Other
wise i'm sure all the other stuff is pretty much right. I just didn't like the
sound of ADRA's tab that was on there... so I modified it a little bit ;) Enjoy! 


*= let ring
^= lift
\= slide down

[ Tab from: http://www.guitartabs.cc/tabs/j/jack_johnson/middle_man_btab_ver_3.html ]
Verse:
G|-----------------7/9^--------------|
D|-----------9--9-------9^-7---7^7^--|
A|--0*-4-5-7--7--------------0-------|
E|-----------------------------------|

Pre Chorus:
G|---------------------------|
D|---------------------------|
A|--3*-333----55555---7*77---|
E|---------------------------|

Chorus:
G|--------------------------|
D|--------------7*-7--------|
A|--7*-7-555*-5------555*-5-|
E|--------------------------|



Outro:
G|--2*-0*---------------|
D|--------2*-0*-1^2*----|
A|----------------------|
E|----------------------|
Comments