Jack Johnson - Middle Man Chords & Tabs

 

Middle Man Chords & Tabs

Jack Johnson Chords & Tabs

Version: 2 Type: Bass Tab 0 ratings
1 star 2 stars 3 stars 4 stars 5 stars
comments

Middle Man Bass Tab

Song: Middleman
Artist: Jack Johnson
Album: Brushfire Fairytales
Tabbed By: ADRA (d_abernathy20@hotmail.com)


*= let ring
^= lift
\= slide down


Verse:
G|--------------------------|
D|--------9---7*-77---------|
A|--7*-77---7-------5^-6^---|
E|--------------------------|

Pre Chorus:
G|-------------------------------------------------|
D|---------9---7*-77-------9*-99---9---------------|
A|--7*-77---7--------5^-6^-------9---9*-9-8^8*-8---|
E|-------------------------------------------------|

Chorus:
G|--------------------------|
D|--------------7*-7--------|
A|--7*-7-555*-5------555*-5-|
E|--------------------------|
[ Tab from: http://www.guitartabs.cc/tabs/j/jack_johnson/middle_man_btab_ver_2.html ]
Pro Chorus:
G|------------------------------------------------------|
D|--------------7*-7--------9*-99-9-9-------------------|
A|--7*-7-555*-5------555*-5-----------9^9*-9-8^8*-8-777-|
E|------------------------------------------------------|

Verse Variation#1:
G|---------------------------------------|
D|--------9---7*-77-------------9---7^7^-|
A|--7*-77---7-------5^-6^-7*-77---7------|
E|---------------------------------------|

Outro:
G|----------------------|
D|--6^6^-5^5^-5---------|
A|--------------5-6-7\1-|
E|----------------------|


Order:

Verse: x8
Pre Chorus: x1
Chorus: x3
Pro Chorus: x1
Verse: x5
Pre Chorus: x1
Chorus: x5
Pro Chorus: x1
Verse: x2
Verse Variation#1: x4
Outro: x1

This is my first tab ever, but I am almost 100% sure that it is correct. 
Just listen to the song and you will pick up the rhythm(CD version). If 
you have any questions or comments, please e-mail me. I am interested 
in knowing what you think.
Comments