Jack Johnson - Middle Man Chords & Tabs

 

Middle Man Chords & Tabs

Jack Johnson Chords & Tabs

Version: 1 Type: Bass Tab

Middle Man Bass Tab

Intro and Verse:
[ Tab from: http://www.guitartabs.cc/tabs/j/jack_johnson/middle_man_btab.html ]
--7---------------------7--9--7-----------------------
---------------9-----9-----------9-----7-----7--7--7--
------------7-----7-----------------------------------
-----9--10--------------------------5-----5-----------

--7---------------------7--9--7-----------------------
---------------9-----9-----------9-----7-----7--7--7--
------------7-----7-----------------------------------
-----9--10--------------------------5-----5-----------

Repeats....