Jack Johnson - Good People Chords & Tabs

 

Good People Chords & Tabs

Jack Johnson Chords & Tabs

Version: 3 Type: Tab 0 ratings
1 star 2 stars 3 stars 4 stars 5 stars
comments

Good People Tab

   
Artist: Jack Johnson
Title: Good People
Album: In Between Dreams

Tabber: Vanceboy (e-mail vanceboy@hotmail.com)
Hourse taken to tab this dam thing correctly: 4 hrs.
Amount of stars you should give this tab: 6 (okay okay, just give 5 then.)

Well, this is my first submitted tab.  This gets down to the nitty gritty, to sound
exactly how jack plays it, for the most part.  You should be scoring chics in no time.


INTRO
e---------------------------9--------------|
B-----b9-10p9p7---7---------9---9/10--9-7--|
G---------------9-----------9--10/11-10-8--|
D------------------------------------------|
A------------------------------------------|
E-7-7---------------10-9-9-----------------|

e---------------------------9-------------------|
B-----b9-10p9p7---7---------9-------------------|
G---------------9-----------9--11-11-9h11p9-----|
D-------------------------------------------11--|
A-----------------------------------------------|
E-7-7---------------10-9-9----------------------|

[ Tab from: http://www.guitartabs.cc/tabs/j/jack_johnson/good_people_tab_ver_3.html ]
VERSE/CHORUS
      B          E        C#m      F#
e-----7----------7---------9--------9------|
B-----7----------9---------9-------11------|
G-----8----------9---------9-------11------|
D-----9----------9--------11-------11------|
A-----9-----7-7--7-11-----11-11\----9------|
E-7-7----11-----------9-9-------\2-----11--|


IN BETWEENER SOLO THINGY
e---------------------------9--------------|
B------b9-10p9p7---7--------9--12-11-b-9---|
G----------------9----------9--12-11-b-10--|
D------------------------------------------|
A------------------------------------------|
E--7-7---------------10-9-9----------------|


e---------------------------9----------------------|
B------b9-10p9p7---7--------911p911p911p9-10-9--|
G----------------9----------9----------------------|
D--------------------------------------------------|
A--------------------------------------------------|
E--7-7---------------10-9-9------------------------|


BRIDGE
  E         B           C   C#      F#          F
e-7-------7-7--------7/-8----9-------9-------9\-8--|
B-9-------9-7--------7/-8----9------11------11\10--|
G-9-(x8)--9-8-(x6)---8/-9---10-(x8)-11-(x6)-11\10--|
D-9-------9-9--------9/-9---10------11------11\10--|
A-7-------7-9--------9/10---11-------9-------9\-8--|
E--------------------------------------------------|

VERSE/CHORUS


Going, going, gone...




That's it.  Have fun & enjoy!  E-mail me with questions/comments/suggestions,
and don't forget to rate this!!! Now go get Jack Johnson's CDs.
Comments