Jack Johnson - Gone Chords & Tabs

 

Gone Chords & Tabs

Jack Johnson Chords & Tabs

Version: 3 Type: Tab

Gone Tab

   
                           Gone - Jack Johnson
                           -------------------

   This song is a simple, relaxing song that's fun to play and sing along with.

   D      Bm      F#       G     Em
E |0|   E |2|   E |2|   E |3|   E|0|
A |0|   A |2|   A |4|   A |5|   A|2|
D |0|   D |4|   D |4|   D |5|   D|2|
G |2|   G |4|   G |3|   G |4|   G|0|
B |3|   B |3|   B |2|   B |3|   B|0|
E |2|   E |2|   E |2|   E |3|   E|0|


Intro:
[ Tab from: http://www.guitartabs.cc/tabs/j/jack_johnson/gone_tab_ver_3.html ]
E|-----------------------|
A|------------2----------|
D|--0-----------4---(0)--|
G|----2---(0)-----4------| Repeat 4x
B|------3---------3------|
e|------2----------------|


Verse:

E|------------2-------------------3---------|
A|--------------4---(0)-2-----------5---(0)-|
D|--0-------------4-------4---(0)-----5-----|
G|----2---(0)-----3---------4---------4-----| Repeat 3x then
B|------3-------------------3---------------|
e|------2-----------------------------------|

E|--0---------0---------3---------|
A|----2---(0)---2---(0)---5---(0)-|
D|------2---------2---------5-----|
G|------0---------0---------4-----|
B|--------------------------------|
e|--------------------------------|

     Questions or comments email me at birdman1502@hotmail.com