Jack Johnson - Flake Live Chords & Tabs

 

Flake Live Chords & Tabs

Jack Johnson Chords & Tabs

Version: 1 Type: Tab 0 ratings
1 star 2 stars 3 stars 4 stars 5 stars
comments

Flake Live Tab

song: flake (live)
artist: jack johnson
tabbed by patrick swindall

send me any corrections at pats1018@aol.com but there shouldnt be any

Intro/Verse:

play first line three times:

    
e:-x-x-x-x---------x-x-x-x--------------x-x-x-x----------1-1-1-1-------|
B:-6-6-6-6---------x-x-x-x--------------6-6-6-6----------1-1-1-1-------|
G:-7-7-7-7---------5-5-5-5--------------7-7-7-7----------2-2-2-2-------|
D:-7-7-7-7---------5-5-5-5--------------8-8-8-8----------3-3-3-3-------|
A:-5-5-5-5---------3-3-3-3--------------8-8-8-8----------3-3-3-3-------|
E:-5-5-5-5---------x-x-x-x--------------6-6-6-6----------1-1-1-1-------|
[ Tab from: http://www.guitartabs.cc/tabs/j/jack_johnson/flake_live_tab.html ]
e:-x-x-x-x---------x-x-x-x-------x-x-x-x--------x---x---x---x----------|
B:-6-6-6-6---------x-x-x-x-------6-6-6-6--------8---8---8---8----------|
G:-7-7-7-7---------5-5-5-5-------7-7-7-7--------9---9---9---9----------|
D:-7-7-7-7---------5-5-5-5-------8-8-8-8-------10--10--10--10----------|
A:-5-5-5-5---------3-3-3-3-------8-8-8-8-------10--10--10--10----------|
E:-5-5-5-5---------x-x-x-x-------6-6-6-6--------8---8---8---8----------|
 Maybe she ...                   I'm so ... 

Chorus:
play 2 times 

e:-x-x-x-x------x---x---x---x--------x-x-x-x---------x-x-x-x-----------|
B:-x-x-x-x------8---8---8---8--------6-6-6-6---------5-5-5-5-----------|
G:-5-5-5-5------9---9---9---9--------7-7-7-7---------6-6-6-6-----------|
D:-5-5-5-5-----10--10--10--10--------7-7-7-7---------7-7-7-7-----------|
A:-3-3-3-3-----10--10--10--10--------5-5-5-5---------7-7-7-7-----------|
E:-x-x-x-x------8---8---8---8--------5-5-5-5---------5-5-5-5-----------|

 
e:-x-x-x-x------x---x---x---x--------x-x-x-x--------x---x---x---x------|
B:-6-6-6-6------8---8---8---8--------x-x-x-x--------8---8---8---8------|
G:-7-7-7-7------9---9---9---9--------5-5-5-5--------9---9---9---9------|
D:-8-8-8-8-----10--10--10--10--------5-5-5-5-------10--10--10--10------|
A:-8-8-8-8-----10--10--10--10--------3-3-3-3-------10--10--10--10------|
E:-6-6-6-6------8---8---8---8--------x-x-x-x--------8---8---8---8------|
Comments