Jack Johnson - Flake Chords & Tabs

 

Flake Chords & Tabs

Jack Johnson Chords & Tabs

Version: 4 Type: Bass Tab

Flake Bass Tab

   Jack Johnson - Flake

Verse
G------------------------------------|
D-----------3/-----------------------| 3x
A--345-55-----------3/1-11--3/-------|
E-------------1-11------------1-11---|

G----------------------------------------|
D-----------3/---------------------------|
A--345-55-----------3/1-11--13-33--0-3---|
E-------------1-11-----------------------|
[ Tab from: http://www.guitartabs.cc/tabs/j/jack_johnson/flake_btab_ver_4.html ]
Chorus
G-------------------------------------------------------------------|
D-------------------------------------------------------------------|
A---------0-3-33--345-55--050-00---01-11--03-33--03-------03-33--03-|
E--1-11--1-----------------------1------1----------1-11-1-----------|

G--------------------------------------------------------------------|
D--------------------------------------------------------------------|
A---------0-3-33--345-55--050-00---01-11--03-33--03-------03-33--34--|
E--1-11--1-----------------------1------1----------1-11-1------------|

Verse
G----------------------------------------|
D----3/-------------------3/-------------|
A--5------3/1--3/--345--5------3/1--3/---|
E------1---------1----------1---------1--|

Verse 1(both lines, no repeats)
Chorus(first line 2x, no second line)