Jack Johnson - Flake Chords & Tabs

 

Flake Chords & Tabs

Jack Johnson Chords & Tabs

Version: 3 Type: Bass Tab 0 ratings
1 star 2 stars 3 stars 4 stars 5 stars
comments

Flake Bass Tab

   
Come in after 8 measures

Verse 


G |---------------------------------- |
D |---------------------------------- |   X3
A |--3-4-5----5-5---8/--1--1-1------- |
E |------------------------------11-- |

G |---------------------------------- |
D |---------------------------------- |
A |--3-4-5----5-5---8/--1--1-1--3-3-- |
E |---------------------------------- |


Chorus 


G |---------------------------------- |
D |---------------------------------- |
A |---------------3--3-3-3---4------- |
E |--1---1-1-1--5-------------------- |
[ Tab from: http://www.guitartabs.cc/tabs/j/jack_johnson/flake_btab_ver_3.html ]
G |---------------------------------- |
D |---------------------------------- |
A |--5---5-5-5----------------------- |
E |-------------5-5--5-5-5---5------- |

G |---------------------------------- |
D |---------------------------------- |
A |--1--1-1-1---2-3--3-3-3---3------- |
E |---------------------------------- |

G |---------------------------------- |
D |---------------------------------- |
A |---------------3--3--3--3--------- |
E |--1--1-1-1---1-------------------- | 



| / slide up 
| \ slide down 
| h hammer-on 
| p pull-off 
| ~ vibrato 
| + harmonic 
| x Mute note 

Just a few corrections pklease rate
Comments