Jack Johnson - Flake Chords & Tabs

 

Flake Chords & Tabs

Jack Johnson Chords & Tabs

Version: 2 Type: Bass Tab 0 ratings
1 star 2 stars 3 stars 4 stars 5 stars
comments

Flake Bass Tab

   
CORRECTIONS IN FORMATTING TO 1ST TAB I SUBMITTED

------------------------------------------------------------------------------- 
			SONG NAME - Band Name
------------------------------------------------------------------------------- 

Tabbed By : SerfNY
e-mail: serf718@hotmail.com
Tuning: Standard

Come in after 8 measures

Verse 


G |---------------------------------- |
D |---------------------------------- |
A |--3-4-5----5-5----8\-------------- |
E |--------------------1---1-1------- |

G |---------------------------------- |
D |---------------------------------- |
A |----3\1----1-1----3\-------------- |
E |--------------------1---1-1------- |


Chorus 

[ Tab from: http://www.guitartabs.cc/tabs/j/jack_johnson/flake_btab_ver_2.html ]
G |---------------------------------- |
D |---------------------------------- |
A |---------------3--3-3-3---4------- |
E |--1---1-1-1--5-------------------- |

G |---------------------------------- |
D |---------------------------------- |
A |--5---5-5-5----------------------- |
E |-------------5-5--5-5-5---5------- |

G |---------------------------------- |
D |---------------------------------- |
A |--1--1-1-1---2-3--3-3-3---3------- |
E |---------------------------------- |

G |---------------------------------- |
D |---------------------------------- |
A |---------------------------------- |
E |--1--1-1-1---1-3--3-3-3----------- | 



| / slide up 
| \ slide down 
| h hammer-on 
| p pull-off 
| ~ vibrato 
| + harmonic 
| x Mute note 
==============================================================================
Comments