Jack Johnson - F Stop Blues Chords & Tabs

 

F Stop Blues Chords & Tabs

Jack Johnson Chords & Tabs

Version: 4 Type: Tab 0 ratings
1 star 2 stars 3 stars 4 stars 5 stars
comments

F Stop Blues Tab

   
----------------------------------------------------------------------------
			     F-STOP BLUES - Jack Johnson
----------------------------------------------------------------------------
Tabbed by: Andy Bessette
Email: Pittshockey17@aol.com

Tuning: Standard

Riff #1
e|-------------------------------------------------------------------------|
B|-----------5-------5-----------------------------------------------------|
G|-----------4-h-6---4-------------4-------4-----------2-------------------|
D|------6--------------------------4-h-6---4----2--4---2--------------2----|
A|-----------------------------6---------------0----------4--2--2--4----2/-|
E|---0----------------------4----------------------------------------------|

Riff #2
e|-------------------------------------------------------------------------|
B|-----------5-------5-----------------------------------------------------|
G|-----------4-h-6---4---------4-------4-----------2-----------------------|
D|-----6-----------------------4-h-6---4------2--4----2----------------2---|
A|--------------------------6--------------0-------------4--2--2--4------2-|
E|---0-------------------4-------------------------------------------------|

Riff #3
e|-------------------------------------------------------------------------|
B|-------------------------------------------------------------------------|
G|---------4-------------------------4-------------------2----------2------|
D|---------4-h-6-p-4------------4-----4---------2--4--------//4-----2------|
A|-------------------------2----------------0---------------0--------------|
E|---0---------------------------------------------------------------------|

Riff #4
e |------------------------------------------------------------------------|
B |------------------------------------------------------------------------|
G |--------4-------------------------4--------------------------4----------|
D |--------4-h-6-p-4------------4-----4----------------5//6------6//-------|
A |------------------------2----------------0------------------------------|
E |--0---------------------------------------------------------------------|

Riff #5
e |------------------------------------------------------------------------|
B |----------5------5------------------------------------------------------|
G |----------4-h-6--4-------------4-------4-----------2--------------4-----|
D |------6------------------------4-h-6---4-----2--4-----2------5//6----6/-|
A |---------------------------6-----------------0----------4--2------------|
E |--0---------------------4-----------------------------------------------|






[ Tab from: http://www.guitartabs.cc/tabs/j/jack_johnson/f_stop_blues_tab_ver_4.html ]
Riff #6
e |------------------------------------------------------------------------|
B |-------5------5------------------------------------------------------5--|
G |-------4-h-6--4-----------4---------4------------2--------------5//6---6|
D |-----6---------------------4-h-6-----4-----2--4------2------------------|
A |---------------------6-------------------0--------------4-----2---------|
E |-0----------------4-----------------------------------------------------|

e |------------------------------------------------------------------------|
B |-----6//7--9--7--5~~-------5------------6//7--9--7--5~~-----------------|
G |------------------------5//6-----6--------------------------------------|
D |-6~~-------------------------------6~~-------------------2//4--6--4--2~~|
A |------------------------------------------------------------------------|
E |------------------------------------------------------------------------|

Riff #7
e |------------------------------------------------------------------------|
B |------------------------------------------------------------------------|
G |---------2-------2~~--2-------2-------2~~--------------4----------------|
D |---------2-h-4--2~~--2-h-4--2-h-4--2~~-------5//6------6//--------------|
A |------4------------------------------------0~~--------------------------|
E |---2--------------------------------------------------------------------|






Riff #1 
Riff #2 

Riff #3 (x7)
	  Hermit crabs and cowry shells 
	  Crush beneath his feet as he comes towards you 
	  He's waving at you 

	  Lift him up to see what you can see 
	  He begins his focusing 
	  He's aiming at you 

	  And now he has cutaways from memories 
	  And close-ups of anything that 
	  He has seen or even dreamed 
	  And now he's finished focusing 

	  He's imagining lightning 
	  Striking sea sickness 
Riff #4	  Away from here 

Riff # 1  Look who's laughing now that you've wasted 
Riff # 5  How many years and you've barely even tasted 
Riff #1	  Anything remotely close to 
	  Everything you've boasted about 
Riff #6	  Look who's crying now 

	  Driftwood floats, after years of erosion 
	  Incoming tide touches roots to expose them, 
	  Quicksand steals my shoe, 
	  Clouds bring the f-stop blues 
Riff # 7

Riff #1  Look who's laughing now that you've wasted
Riff #5	  How many years and you've barely even tasted
Riff #1	  Anything remotely close to 
Riff #5	  Everything you've boasted about
Riff #1	  Look Who's crying now
Riff #5
Riff #1
Riff #5



| /  slide up
| \  slide down
| h  hammer-on
| p  pull-off
| ~  vibrato
| +  harmonic
| x  Mute note
============================================================================
Comments