Jack Johnson - F Stop Blues Chords & Tabs

 

F Stop Blues Chords & Tabs

Jack Johnson Chords & Tabs

Version: 1 Type: Bass Tab 0 ratings
1 star 2 stars 3 stars 4 stars 5 stars
comments

F Stop Blues Bass Tab

Song: F-Stop Blues
Artist: Jack Johnson
Album: Brushfire Fairytales
Tabbed By: ADRA (d_abernathy20@hotmail.com)


*= let ring

The song starts with just the bass and guitar, 
and the chorus is played twice before the intro
verse is played.


Intro Verse - till drums come in
G|-------------|
D|----9*-7*-7*-|
A|-7*----------|
E|-------------|

[ Tab from: http://www.guitartabs.cc/tabs/j/jack_johnson/f_stop_blues_btab.html ]
Verse
G|---------------------|
D|------9*-9-7*-7-7*-7-|
A|-7*-7----------------|
E|---------------------|


Chorus
G|---------------------|
D|-----------7*-7-9*-9-|
A|-7*-7-9*-9-----------|
E|---------------------|



Aside from the intro verse and the occassional 
chorus, the whole song is pretty much just 
the verse. This is a really simple, slow song,
so there is almost no talent needed to tab/play 
this song...though it does sound really good. 
Enjoy.
Comments