Jack Johnson - Drink The Water Chords & Tabs

 

Drink The Water Chords & Tabs

Jack Johnson Chords & Tabs

Version: 2 Type: Bass Tab 0 ratings
1 star 2 stars 3 stars 4 stars 5 stars
comments

Drink The Water Bass Tab

*I noticed that the other bass tabs for this song are not at
 all how I play it. Not that their wrong but it sounds much
 different to me. Here's my take on it.

Verse/Bridge

G----------------------------------------------------|
D----------------------------------------------------|
A----4--4-4--2-3-4--4-4--------------------------2-3-|
E------------------------2-3-4--4-4--0-1-2--2-2------|
[ Tab from: http://www.guitartabs.cc/tabs/j/jack_johnson/drink_the_water_btab_ver_2.html ]
*The 3a at the end of the verse carries directly back to the
 4a at the beginning to keep the pattern consistent.

Chorus

G-------------------------------------------------| 
D-------------------------------------------------|
A----7--7-7-------------------4--4-4-2-3-4--4-4---|
E-----------(2)-(3)-4--4-4------------------------|

* The 2 and 3 in parenthesis are optional. I usually alternate them for some variation. 
Hope this tab proves helpful. Play On!
Comments