Jack Johnson - Do You Remember Chords & Tabs

 

Do You Remember Chords & Tabs

Jack Johnson Chords & Tabs

Version: 1 Type: Tab 0 ratings
1 star 2 stars 3 stars 4 stars 5 stars
comments

Do You Remember Tab

Intro/Verse
e------------------------------------------------------------------------|
b------------3--3---3--3-3-----------------3-3--------------3------------|
g------------2--2h4----4-2---2-2-----------0-0--------------2------------|
d-----0-2-0--0---------------2-2-2/4-2-0---0-0-----0-2-0----0------------|
a-1/2----------------------0---------------2-2-1/2-------------0---------|
E----------------------------------------3-3-3---------------------------|
[ Tab from: http://www.guitartabs.cc/tabs/j/jack_johnson/do_you_remember_tab.html ]
e------------------------------------------------------------------------|
b------------3--3---3--3-3------------------3--3---------------3---------|
g------------2--2h4----4-2---2-2------------0--0---------------2----2----|
d-----0-2-0--0---------------2-2--2/4-2-0---0--0--0h2-0h2--0---0----2----|
a-1/2----------------------0----------------2--2------------------0-0----|
E-----------------------------------------3-3--3-------------------------|

Tabbed by Jacob Swain
Comments