Jack Johnson - Cupid Chords & Tabs

 

Cupid Chords & Tabs

Jack Johnson Chords & Tabs

Version: 1 Type: Tab 0 ratings
1 star 2 stars 3 stars 4 stars 5 stars
comments

Cupid Tab

-----------------------------------------------------------------------------
                       Cupid- Jack Johnson
-----------------------------------------------------------------------------
Tabbed By: James Valles 
E-Mail: james_v_a_l@hotmail.com
Album: On And On

e|-5-5-5--5-5-5--7-7-7--2-2-2------------------------------------------------|
B|-5-5-5--5-5-5--7-7-7--2-2-2------------------------------------------------|
G|-6-6-6--5-5-5--9-9-9--3-3-3------------------------------------------------|
D|-7-7-7--6-6-6--9-9-9--4-4-4------------------------------------------------|x 6
A|-7-7-7--7-7-7--7-7-7--4-4-4------------------------------------------------|
E|-5-5-5--5-5-5--7-7-7--2-2-2------------------------------------------------|

How many times must we go through this
You've always been mine, woman i thought you knew this
How many times must we go through this
You'll always be mine, cupid only misses sometimes


e|-2-2-2-2-2-2--7-7-7-7-7-7--------------------------------------------------|
B|-2-2-2-2-2-2--7-7-7-7-7-7--------------------------------------------------|
G|-4-4-4-4-4-4--9-9-9-9-9-9--------------------------------------------------|
D|-4-4-4-4-4-4--9-9-9-9-9-9--------------------------------------------------|x1
A|-2-2-2-2-2-2--7-7-7-7-7-7--------------------------------------------------|
E|-2-2-2-2-2-2--7-7-7-7-7-7--------------------------------------------------|
[ Tab from: http://www.guitartabs.cc/tabs/j/jack_johnson/cupid_tab.html ]
e|-5-5-5--5-5-5--7-7-7--2-2-2------------------------------------------------|
B|-5-5-5--5-5-5--7-7-7--2-2-2------------------------------------------------|
G|-6-6-6--5-5-5--9-9-9--3-3-3------------------------------------------------|
D|-7-7-7--6-6-6--9-9-9--4-4-4------------------------------------------------|x 2
A|-7-7-7--7-7-7--7-7-7--4-4-4------------------------------------------------|
E|-5-5-5--5-5-5--7-7-7--2-2-2------------------------------------------------|
ummmmmmmmmmm, hmmmmmmmmmmmmmmmm
ummmmmmmmmmm, hmmmmmmmmmmmmmmmm

e|-2-2-2-2-2-2--7-7-7-7-7-7--5-5-5--5-5-5--2-2-2-2-2-2-----------------------|
B|-2-2-2-2-2-2--7-7-7-7-7-7--5-5-5--5-5-5--2-2-2-2-2-2-----------------------|
G|-4-4-4-4-4-4--9-9-9-9-9-9--6-6-6--5-5-5--2-2-2-2-2-2-----------------------|
D|-4-4-4-4-4-4--9-9-9-9-9-9--7-7-7--6-6-6--4-4-4-4-4-4-----------------------|x2
A|-2-2-2-2-2-2--7-7-7-7-7-7--7-7-7--7-7-7--4-4-4-4-4-4-----------------------|
E|-2-2-2-2-2-2--7-7-7-7-7-7--5-5-5--5-5-5--2-2-2-2-2-2-----------------------|

But we could end up broken hearted if we don't remember why all this started
And if they try to tell you love fades with time tell them there's no such thing as time

e|-2-2-2-2-2-2--7-7-7-7-7-7--5-5-5--5-5-5--7-7-7--2-2-2----------------------|
B|-2-2-2-2-2-2--7-7-7-7-7-7--5-5-5--5-5-5--7-7-7--2-2-2----------------------|
G|-4-4-4-4-4-4--9-9-9-9-9-9--6-6-6--5-5-5--9-9-9--3-3-3----------------------|
D|-4-4-4-4-4-4--9-9-9-9-9-9--7-7-7--6-6-6--9-9-9--4-4-4----------------------|x2
A|-2-2-2-2-2-2--7-7-7-7-7-7--7-7-7--7-7-7--7-7-7--4-4-4----------------------|
E|-2-2-2-2-2-2--7-7-7-7-7-7--5-5-5--5-5-5--7-7-7--2-2-2----------------------|

It's Our Time...........
It's Our Time...........


e|-5~------------------------------------------------------------------------|
B|-5~------------------------------------------------------------------------|
G|-6~------------------------------------------------------------------------|
D|-7~-Let Ring---------------------------------------------------------------|x1
A|-7~------------------------------------------------------------------------|
E|-5~------------------------------------------------------------------------|

It's Our Time...................

Thats It Enjoy!
-----------------------------------------------------------------------------
Comments