Jack Johnson - Constellations Chords & Tabs

 

Constellations Chords & Tabs

Jack Johnson Chords & Tabs

Version: 3 Type: Tab

Constellations Tab

************************
*Jack Johnson          *
*Constellations        *
*Tabbed By: Jeff Hansen*
************************
This is a modified more correct version of my 
previous tab. 

Tuning:Standard; Capo on 1st fret
NOTE: All tabs relative to capo.




INTRO

E--3-2-3-5-3-2----1-----5/3-1------------------------2p0-------------]\
B--------------3----1---------1----1----3-1----3---------3-----------] \
G---------------------2---------0----0------0----2---------2---------]  \2
D--------------------------------------2-------0~--4-----------------]  /X
A----------------------------------3-LET RING------------------------] /
E-3~LET RING~~---1-LET RING~~~--------------------------------------]/

VERSE
E-------3---5--3--2--3--x--3-3-3-3---------0--0----------------------]
B-------0---0--0--0--0--3-5-3-3-3---------1--3----------------------] 
G-------0---0--0--0--0--0--5-5-5-5---then--0--2----------------------]  
D-------x---x--x--x--x--x--5-5-5-5---------2-0----------------------]  
A-------x---x--x--x--x--x--3-3-3-3---------3--x----------------------] 
E------3---3--3--3--3--3---------------------3----------------------]

Chorus (chords)
[ Tab from: http://www.guitartabs.cc/tabs/j/jack_johnson/constellations_tab_ver_3.html ]
E-----5---1--3--5----------------------------------------------------]
B-----5---1--5--7----------------------------------------------------]
G-----4---4--5--7---Figure out the strumming-------------------------]
D-----5---3--5--7----------------------------------------------------]
A-----5---3--3--5----------------------------------------------------]
E-----3---1----------------------------------------------------------]



Solo 
99% correct. 

E--3----5---3--7---5---3--3-----------3--------------3-----5---------]
B--------------------------3-----0-----33----0-1/3---------------5---]
G----4/55/4----7/55/4-----4-0h2--/4-----0h2----------4/5---5/4-----]
D--------------------------------------------------------------------]
A--------------------------------------------------------------------]
E--------------------------------------------------------------------]


E--7-5/3---3/5-3---3p0-----3p0--3---3--------------------------------]
B--------0-------5----3---3-------3-3p0-----------------------------]
G-----------------------/4-------0-0---------------------------------]
D--------------------------------------------------------------------]
A--------------------------------------------------------------------]
E--------------------------------------------------------------------]

Verse
Chorus
Intro 

The End!!!