Jack Johnson - Breakdown Chords & Tabs

 

Breakdown Chords & Tabs

Jack Johnson Chords & Tabs

Version: 4 Type: Tab 0 ratings
1 star 2 stars 3 stars 4 stars 5 stars
comments

Breakdown Tab

   
		     Breakdown - Jack Johnson
-------------------------------------------------------------------------------
Tabbed by:Mr Rythem
Email:wild_curry_69@hotmail.com

Tuning:Standard
Intro/Verse
e|----------8--------------------7-------------------------------7---------------------|
B|-------8------8------------8------8------------10-----------8-----8------------------|
G|----9------------------9-------------9------9------9-----7-----------7---------------|
D|-10----------------10-------------------10------------10-----------------------------|
A|-------------------------------------------------------------------------------------|
E|-------------------------------------------------------------------------------------|
Play    Times

Chorus
          C        E        D
e|---------------------------------------------------------------------------|
B|---------------------------------------------------------------------------|
G|---------------------------------------------------------------------------|
D|---------------------------------------------------------------------------|
A|---------------------------------------------------------------------------|
E|---------------------------------------------------------------------------|
[ Tab from: http://www.guitartabs.cc/tabs/j/jack_johnson/breakdown_tab_ver_4.html ]
Bridge
        E      D      C
e|---------------------------------------------------------------------------|
B|---------------------------------------------------------------------------|
G|---------------------------------------------------------------------------|
D|---------------------------------------------------------------------------|
A|---------------------------------------------------------------------------|
E|---------------------------------------------------------------------------|

e|---8--------8-----8------12------12-----12-----8----8----8----10-----10-------10--|
B|-----8--------8-----8-------12------12-----12----8----8----8-----10-----10----10--|
G|--------9-------9--------------13------13-----------9---9-----------11-------11---|
D|----------------------------------------------------------------------------------|
A|----------------------------------------------------------------------------------|
E|----------------------------------------------------------------------------------|
 Repete 4 times

Chorus

Outro
e|-----8------------------------------------------------------------------------------|
B|--------10-----8-------8----10----8-------------------------------------------------|
G|-------------------9------------------9----7----------------------------------------|
D|------------------------------------------------------------------------------------|
A|------------------------------------------------------------------------------------|
E|------------------------------------------------------------------------------------|
 Play 4 times

e|---8-----------------12-----10-----8-----------------------------------------------|
B|------10----8----------------------------------------------------------------------|
G|----------------9------------------------------------------------------------------|
D|-----------------------------------------------------------------------------------|
A|-----------------------------------------------------------------------------------|
E|-----------------------------------------------------------------------------------|
 Play 4 times


Well thats about it. This is my first tab so if theres anything wrong with it please let me know.
Comments