Jack Johnson - Breakdown Chords & Tabs

 

Breakdown Chords & Tabs

Jack Johnson Chords & Tabs

Version: 1 Type: Tab 0 ratings
1 star 2 stars 3 stars 4 stars 5 stars
comments

Breakdown Tab

Breakdown by Jack Johnson

I know this song's on a ukelele but I tried to change it to guitar. 
Hope you like it! --AL
-------------------------------------------------------------------

Capo 5

Intro: 
E-----3--------|-----2-------|-----0------|-----2-------|
B----3--3------|----3-3------|----0-0-----|----3-3------|
G---0-----0----|---2----2----|---0---0----|---2---2-----|
D--------------|-0-----------|------------|-0-----------|
A--------------|-------------|-2----------|-------------|
E-3------------|-------------|------------|-------------|

Verse 1: G--D--Em--D (repeats throughout Chorus, Verse 2, Chorus)

For strumming, listen to song.

Bridge: G--D--C (x 5)

Verse 3:
E--3-------|--7--------|--3-------|--5-------|
B---0--0---|----0--0---|---0--0---|---0--0---|
G----0--0--|-----0--0--|----0--0--|----0--0--|     (x 4)
D----------|-----------|----------|----------|
A----------|-----------|----------|----------|
E----------|-----------|----------|----------|
[ Tab from: http://www.guitartabs.cc/tabs/j/jack_johnson/breakdown_tab.html ]
Chorus (same as Verse 1)

Ending:
E--3-0----------------|E--3-0----------------|
B------3-0--0-3-0-----|B------3-0--0-3-0-----|
G----------2------2-0-|G----------2----------| (x2)
D---------------------|D---------------------|
A---------------------|A---------------------|
E---------------------|E---------------------|

E--3/5-3-0------7--5-3-|E--3/5-3-0------7--5--|
B---------3-0----------|B---------3-0---------|
G----------------------|G---------------------|
D----------------------|D---------------------|
A----------------------|A---------------------|
E----------------------|E---------------------|

E--3/5-3-0------7--5-3-|E--3/5-3-0------7--5--3---|
B---------3-0----------|B---------3-0-------------|
G----------------------|G-------------------------|
D----------------------|D-------------------------|
A----------------------|A-------------------------|
E----------------------|E-------------------------|

----------------------------------------------------------------------
Comments