Jack Johnson - Belle Chords & Tabs

 

Belle Chords & Tabs

Jack Johnson Chords & Tabs

Version: 1 Type: Tab 0 ratings
1 star 2 stars 3 stars 4 stars 5 stars
comments

Belle Tab

Tabbed by: Mark Abdon
Belle (track 12) from the album In Between Dreams
Finding someone to learn the accordian may be the toughest part...
Listen to the song to pick up the rhythm.

(3)---2--2--0------1--1--0------2--2--0------2--2--3-33--|
(3)---3--3--3---3--3--3--3---3--3--3--3---3--3--3--4-443-| <- triplett
(-)---4--4--4--4---3--3--3--3---4--4--4--4---2--2--0-003-|
(-)---5--5--5-5----3--3--2-2----5--5--5-5----------5-553-|
(-)-----------------------------------------2-22--3-3----|
(3)--3-33--3-3----3-33--3-3----3-33--3-3---------------3-|

----------------------------2--2--3---3-----------------|
--5--5--5---5--5--5--4---4--3--3--4--4---5--5--4---43---|
--5--5--5--5---5--5--5--5---4--4--0-0----5--5--5--5-----|
--5--5--4-4----5--5--4-4----5--5--5------5--5--4-4------|
---------------------------------3-3--------------------|
-5-55--5-5----5-55--4-4----3-33---------5-55--4-4-------|   (2x)
[ Tab from: http://www.guitartabs.cc/tabs/j/jack_johnson/belle_tab.html ]
2nd time through has accordian.
3rd time through has words.

(3)---2--2--0------1--1--0------2--2--0------2--2--3-33--|
(3)---3--3--3---3--3--3--3---3--3--3--3---3--3--3--4-443-| <- triplett
(-)---4--4--4--4---3--3--3--3---4--4--4--4---2--2--0-003-|
(-)---5--5--5-5----3--3--2-2----5--5--5-5----------5-553-|
(-)-----------------------------------------2-22--3-3----|
(3)--3-33--3-3----3-33--3-3----3-33--3-3---------------3-|
      Oi Lienda, Belle che fa?  Bonita....Bonita que tal? .... But Belle


----------------------------2--2--3---3-----------------|
--5--5--5---5--5--5--4---4--3--3--4--4---5--5--4---43---|
--5--5--5--5---5--5--5--5---4--4--0-0----5--5--5--5-----|
--5--5--4-4----5--5--4-4----5--5--5------5--5--4-4------|
---------------------------------3-3--------------------|
-5-55--5-5----5-55--4-4----3-33---------5-55--4-4-------|
Je ne comprends..pas..francais..So you'll have to speak to me some other way
Comments