Jack Johnson - Banana Pancakes Chords & Tabs

 

Banana Pancakes Chords & Tabs

Jack Johnson Chords & Tabs

Version: 4 Type: Tab 0 ratings
1 star 2 stars 3 stars 4 stars 5 stars
comments

Banana Pancakes Tab

   
----------------------------------------------------------------------------
		    Banana Pancakes by Jack Johnson 
                          In Between Dreams
----------------------------------------------------------------------------
Tabbed by: Daniel Albertson
Email: dkalbert@uncg.edu

Tuning: Standard (EADGBe)
  (Intro)/ Chorus
E ---------------------------x-5--------------------------x-3--------------|
B ---------------------------x-5--------------------------x-3--------------|
G ---------------------------x-6--------------------------x-4--------------|
D ---------------------------x-7--------------------------x-5--------------|
A --------5------------------x-7---------5----------------x-5--------------|
E ---5/7-----7--5-5/3--0-3/5-x-5----5/7-----7--5-5/3--0-3-x-3--------------|

  Can't You see.......
E ----------------------------x-5--------------------------------x-3-----55|
B ----------------------------x-5--------------------------------x-3-----55|
G ----------------------------x-6--------------------------------x-4-----77|
D ----------------------------x-7--------------------------------x-5-----77|
A ------5--7--5---------------x-7------------5-------------------x-5-----55|
E -5/7------------7-0/3/5----x-5------5/7------75---5/3-0--3--x-3-------|

   Verse				   ...Pretend like it's the weekend now
E|----3-3-------3-3-----3-3-----3-3--|---------------------------------5-5-|
B|----3-3-------3-3-----3-3-----3-3--|---------------------------------5-5-|
G|----4-4-------5-5-----4-4-----5-5--|---------------------------------5-5-|
D|----5-5-------5-5-----5-5-----5-5--|---------------------------------7-7-|
A|----5-5-------3-3-----5-5-----3-3--|---------------------------------7-7-|
E|----3-3---------------3-3----------|---------------------------------5-5-|

   We could pretend...
E|--------------------------x-3----------------------------x-5-------------|
B|--------------------------x-3----------------------------x-5-------------|
G|--------------------------x-4----------------------------x-6-------------|
D|--------------------------x-5----------------------------x-7-------------|
A|---------5----------------x-5---------5------------------x-7-------------|
E|----5/7-----7--5-5/3--0-3-x-3----5/7-----7--5-5/3--0-3/5-x-5-------------|
[ Tab from: http://www.guitartabs.cc/tabs/j/jack_johnson/banana_pancakes_tab_ver_4.html ]
E|--------------------------x-3---------------------5-5--------------------|
B|--------------------------x-3---------------------5-5--------------------|
G|--------------------------x-4---------------------7-7--------------------|
D|--------------------------x-5---------------------7-7--------------------|
A|---------5----------------x-5---------------------5-5--------------------|
E|----5/7-----7--5-5/3--0-3-x-3--------------------------------------------|

   Ain't no need, ain't no need...
E|-------5-5------------------------------3-3-|----------------------------|
B|-------5-5------------------------------3-3-|----------------------------|
G|-------5-5------------------------------4-4-|--X2------------------------|
D|-------7-7------------------------------5-5-|--X2------------------------|
A|-------7-7------------------------------5-5-|----------------------------|
E|-------5-5------------------------------3-3-|----------------------------|

   The telephone...
E|-------5-5------------------------------5-5-|----------------------------|
B|-------5-5------------------------------5-5-|----------------------------|
G|-------5-5------------------------------7-7-|--X2------------------------|
D|-------7-7------------------------------7-7-|--X2------------------------|
A|-------7-7------------------------------5-5-|----------------------------|
E|-------5-5----------------------------------|----------------------------|

   The whole world...
E|---2-2-----7-7--------------3-3----5-5----3-3-----------------------5-5--|
B|---3-3-----8-8--------------3-3----5-5----3-3-----------------------5-5--|
G|---4-4-----9-9--------------4-4----7-7----4-4-----------------------7-7--|
D|---4-4-----9-9--------------5-5----7-7----5-5-----------------------7-7--|
A|---2-2-----7-7--------------5-5----5-5----5-5-----------------------5-5--|
E|----------------------------3-3-----------3-3----------------------------|

   Ending (ain't no need, ain't no need, rain all day)
E|-------5-5------------------------------3-3-|----------------------------|
B|-------5-5------------------------------3-3-|----------------------------|
G|-------5-5------------------------------4-4-|--X2------------------------|
D|-------7-7------------------------------5-5-|--X2------------------------|
A|-------7-7------------------------------5-5-|----------------------------|
E|-------5-5------------------------------3-3-|----------------------------|


| /  slide up
| \  slide down
| h  hammer-on
| p  pull-off
| ~  vibrato
| +  harmonic
| x  Mute note
============================================================================
Comments