Jack Johnson - Angel Chords & Tabs

 

Angel Chords & Tabs

Jack Johnson Chords & Tabs

Version: 1 Type: Tab 0 ratings
1 star 2 stars 3 stars 4 stars 5 stars
comments

Angel Tab

Standard Tuning.

Pretty simple rhythm, so i only tabbed the chords. Enjoy.


---------3---4---1-----------------------------------------------------|
-8---8---4---4---1---3-----8-----8-------------------------------------|
-8---8---3---5---2---3-----8-----8-------------------------------------|
-8---8---5---6---3---3-----8-----8-------------------------------------|
-6---5---3---6---3---1-----6---5/6-------------------------------------|
-------------4---1-----------------------------------------------------|
{I’ve got an angel…}
{She gives me presents…}
{She can make angels…}
[ Tab from: http://www.guitartabs.cc/tabs/j/jack_johnson/angel_tab.html ]
-1-------1-------------------------------------------------------------|
-1---3---1---3---------------------------------------------------------|
-2---3---2---3---------------------------------------------------------|
-3---3---3---3---------------------------------------------------------|
-3---1---3---1---------------------------------------------------------|
-1-------1-------------------------------------------------------------|
{You’re so busy…}
{Just one smile…}

---------3-------------------------------------------------------------|
-8---8---4-------------------------------------------------------------|
-8---8---3-------------------------------------------------------------|
-8---8---5-------------------------------------------------------------|
-6---5---3-------------------------------------------------------------|
-----------------------------------------------------------------------|
{We share the same soul, Oh Oh Oh Ohhh}

-4---------------------------------------------------------------------|
-4---8-----------------------------------------------------------------|
-5---8-----------------------------------------------------------------|
-6---8-----------------------------------------------------------------|
-6---6-----------------------------------------------------------------|
-4---------------------------------------------------------------------|

{Oh oh oh ohhh, + humming}
Comments