Jack Johnson - All At Once Chords & Tabs

 

All At Once Chords & Tabs

Jack Johnson Chords & Tabs

Version: 1 Type: Bass Tab 0 ratings
1 star 2 stars 3 stars 4 stars 5 stars
comments

All At Once Bass Tab

INTRO:                         x2
G|-------------------------------|
D|-------------------------------|
A|-----------------8-------------|
E|-3-5----5-8----8------10--8----|


CHORUS:                     x2
G|----------------------------|------------|
D|----------------------------|------------|
A|---------10----10------8----|------------|
E|-10----10--------8----8-----|-10----8----|

[ Tab from: http://www.guitartabs.cc/tabs/j/jack_johnson/all_at_once_btab.html ]
VERSE 1:
G|-----------------------------|
D|-----------------------------|
A|-------10----10--------------|
E|-8----8--------13----13-8----|
     
                        x2
G|------------------------|-------------------------------------------------|
D|------------------------|-------------------------------------------------|
A|------------------------|-------------------------------------------------|
E|-13---13-13---8---8-8---|-13----13-10----10-8----8-12----12-13----13-15---|


CHORUS:                      x4
G|-----------------------------|
D|-----------------------------|
A|-------10----10--------------|
E|-8----8--------13----13-8----|


VERSE 2:                x2
G|------------------------|-------------------------------------------------|
D|------------------------|-------------------------------------------------|
A|------------------------|-------------------------------------------------|
E|-13---13-13---8---8-8---|-13----13-10----10-8----8-12----12-13----13-15---|


OUTRO:
G|-----------------------|
D|-----------------------|
A|------10---------------|
E|-8----------13----8----|
Comments