J Mascis And The Fog - Free So Free Chords & Tabs

 

Free So Free Chords & Tabs

J Mascis And The Fog Chords & Tabs

Version: 1 Type: Tab 0 ratings
1 star 2 stars 3 stars 4 stars 5 stars
comments

Free So Free Tab

These are the CORRECT tabs for free so free by J mascis and the fog.
its off of his new album. it helps to capo the third fret
[ Tab from: http://www.guitartabs.cc/tabs/j/j_mascis_and_the_fog/free_so_free_tab.html ]
(intro/verse riff)
e--3---3-3---------3---3-3------|
b--4-------3-3h4---3------------
g--3---------------3-------3-3h5
d--5---------------3------------
a--3---------------5------------
e-------------------------------

just repeat that on the verses until the chorus thing..which is...

e--3-x-x-3---3-x-x-3
b--4-x-x-4---3-x-x-3
g--3-x-x-3---3-x-x-3
d--5-x-x-5---3-x-x-3
a--3-x-x-3---5-x-x-5
e-------------------   i have no idea about the solos....
Comments