J-kwon - You And Me Chords & Tabs

 

You And Me Chords & Tabs

J-kwon Chords & Tabs

Version: 2 Type: Tab 0 ratings
1 star 2 stars 3 stars 4 stars 5 stars
comments

You And Me Tab

You and Me feat. Sadiyyah
J-Kwon

Tabbed by Don Michael Acelar De Leon
donmichael001@yahoo.com

Standard Tuning, |EADGBE|

Main Riff

E|(9)---2-----0-----0-----2-x-|
B|-8-x--3-x---1--x--1--x--3-x-|
G|-7-x--2-x---0--x--0--x--2-x-|
D|-9-x--4-x---2--x--2--x------|
A|-7----2-x--(0)-x--3--x------|
E|----------------------------|


Fill-in

E|------------------------------------|
B|-/8~-8--8/10~~~---10-8-7~-8--10/12~~|
G|------------------------------------|
D|------------------------------------|
A|------------------------------------|
E|------------------------------------|
[ Tab from: http://www.guitartabs.cc/tabs/j/j_kwon/you_and_me_tab_ver_2.html ]
E|------------------------10----10---12---10-|
B|-7~~-8~~8/10------10h12----8~----8----8----|
G|-------------------------------------------|
D|-------------------------------------------|
A|-------------------------------------------|
E|-------------------------------------------|

Legend
-------
h-hammer-on
p-pull-off
~-vibrato
~~emphasized vibrato
x-rake
/-slide to (fret number)
-------

Manor, TX. October 7, 2004, 6:34 PM

My warmest thanks to:

AFS INTERCULTURAL PROGRAMS PHILIPPINES

REPUBLIC OF THE PHILIPPINES
Division of City Schools of Makati
Mayor Jejomar C Binay
Ms Elena R Ruiz

MAKATI SCIENCE HIGH SCHOOL 
Eric Ebia, Jr (BISYO NA 'TO!!!)
Hanz Billy John Magat
Francis Vincent Co
Jodessa Piloton
Reinzy Colle
John Santos
Janie Maye Mamangon
Camille Vanessa Vidad
Maria Christina Santiago Reyes

Dedicated to...

J.A.S.B. 2004 (Love ko 'to!)

CopyrightŪ 2004 by Don Michael Acelar De Leon. All Rights Reserved.
Comments