J-kwon - You And Me Chords & Tabs

 

You And Me Chords & Tabs

J-kwon Chords & Tabs

Version: 1 Type: Tab 0 ratings
1 star 2 stars 3 stars 4 stars 5 stars
comments

You And Me Tab

J-Kwon
" You & Me "
Tabbed by Ricky Refunjol
vapvap187@yahoo.com


E-----------------------------------|
B----8--8--8--8--8--8---------------|
G----9--9--9--9--9--9--------- -----|
D----9--9--9--9--9--9---------------|
A---(7)(7)(7)(7)(7)(7)--------------|
E-----------------------------------|


E-----------------------------------|
B-----7--7--7--7--7--7--------------|
G-----7--7--7--7--7--7--------------|
D-----7--7--7--7--7--7--------------|
A----(5)(5)(5)(5)(5)(5)-------------|
E-----------------------------------|

[ Tab from: http://www.guitartabs.cc/tabs/j/j_kwon/you_and_me_tab.html ]
E-----------------------------------|
B-----5--5--5--5--5--5--------------|
G-----5--5--5--5--5--5--------------|
D-----5--5--5--5--5--5--------------|
A----(3)(3)(3)(3)(3)(3)-------------|
E-----------------------------------|


E-----0--0--0--0--0--0--------------|
B-----1--1--1--1--1--1--------------|
G-----0--0--0--0--0--0--------------|
D----(2)(2)(2)(2)(2)(2)-------------|
A-----------------------------------|
E-----------------------------------|


E-----2--2--2--2--2--2--------------|
B-----3--3--3--3--3--3--------------|
G-----2--2--2--2--2--2--------------|
D----(0)(0)(0)(0)(0)(0)-------------|
A-----------------------------------|
E-----------------------------------|
Comments