J Church - Alone When She Dies Chords & Tabs

 

Alone When She Dies Chords & Tabs

J Church Chords & Tabs

Version: 1 Type: Bass Tab 0 ratings
1 star 2 stars 3 stars 4 stars 5 stars
comments

Alone When She Dies Bass Tab

Band : J-Church
Song : Alone When She Dies
Album : The Drama Of Alienation
Tabbed By : Paul Comrie-Thomson
E-Mail : p_comrie_thomson@users.basstabarchive.com

G:---------------------------------------|
D:-------------------------------3-2-----|
A:-3-33-----------3-33---------------5-3-|
E:------0-00-5-55------1-11-3-33---------|
[ Tab from: http://www.guitartabs.cc/tabs/j/j_church/alone_when_she_dies_btab.html ]
G:--------------------------------------------------------------------------------|
D:--------------------------------------------------------------------------------|
A:-----------3333-3333-----------3333-3333-----------33331111---------------------|
E:-1111-3333-----------1111-3333-----------1111-3333----------5555-5555-3333-3333-|



G:-----------------------------------------|
D:-----------------------------------------|
A:-3-33-2-22---------------------3333-3333-|
E:-----------5-55-3-33-1-11-4-44-----------|

G:---------------------------------:---------------------|
D:-3333-3333--3333-553-------------:---------------------|
A:---------------------5-3333-3333-:-----------3333-3333-|
E:---------------------------------:-1111-3333-----------|

This is a really cool song by a really cool band.  Check out their new album "One Mississippi".  It is soooo cool.

Comments