Itchyworms - Ilalim Ng Buwan Chords & Tabs

 

Ilalim Ng Buwan Chords & Tabs

Itchyworms Chords & Tabs

Version: 1 Type: Tab 0 ratings
1 star 2 stars 3 stars 4 stars 5 stars
comments

Ilalim Ng Buwan Tab

Song: Ilalim Ng Buwan
Artist/Band: Itchyworms
Submitted by: bogey

Intro:
[ Tab from: http://www.guitartabs.cc/tabs/i/itchyworms/ilalim_ng_buwan_tab.html ]
E|--------------------------------------------------------------|
B|--------------------------------------------------------------|
G|--------------------------------------------------------------|
D|---7-7h8-7-5-7------7-7h8-7-5-7------7-7h8-7-5-7--------------|
A|----------------8----------------8----------------8-----------|
E|--------------------------------------------------------------|

E|------------|
B|------------|
G|------------|
D|------------|
A|---------8--|
E|---0-4-8----|


Yung intro pa lang yung nakakapa ko eh... antayin niyo na lang yung buo...hindi nga ako
sure sa title ng kantang 'to eh...
Comments