It Dies Today - A Threnody For Modern Romance Chords & Tabs

 

A Threnody For Modern Romance Chords & Tabs

It Dies Today Chords & Tabs

Version: 3 Type: Tab 0 ratings
1 star 2 stars 3 stars 4 stars 5 stars
comments

A Threnody For Modern Romance Tab

Okay so this is how i play this song.

Drop C tuning.

Intro Guitar 1.
|-------------------------------------------------------------------|
|-------------------------------------------------------------------|
|-------------------------------------------------------------------|
|------------------------7-5----------------------------7-5---8-----|
|--------------------5-8-----8-7--0-----------------5-8-----8-------|
|--000-000-000-000-0--------------0-0-000-000-000-0-----------------|
PM ... ... ... ... . . .            . ... ... ... . . .

Intro Guitar 1 Cont.
|-----------------------------------------------------------|
|-----------------------------------------------------------|
|-----------------------------------------------------------|
|------------------------7-5----------------3-3--5--5-5-----|
|--0-----------------5-8-----8-7--5-5--3-3--1-1--3--3-3-----|
|--0-0-000-000-000-0--------------5-5--3-3------------------|
PM   . ... ... ... . . .

Intro Guitar 2.
|-------------------------------------------------------------------|
|-------------------------------------------------------------------|
|-------------------------------------------------------------------|
|------------------------3-2----------------------------3-2---5-----|
|--------------------3-5-----5-3--0-----------------3-5-----5-------|
|--000-000-000-000-0--------------0-0-000-000-000-0-----------------|
PM ... ... ... ... . . .            . ... ... ... . . .

Intro Guitar 2 Cont.
|----------------------------------------------------------|
|----------------------------------------------------------|
|----------------------------------------------------------|
|------------------------3-2----------------3-3--5--5-5----|
|--0-----------------3-5-----5-3--5-5--3-3--1-1--3--3-3----|
|--0-0-000-000-000-0--------------5-5--3-3-----------------|
PM   . ... ... ... . . .

Verse.     both guitars play the same thing here
|-----------------------------------------------------------|
|-----------------------------------------------------------|
|-----------------------------------------------------------|
|--------------------------------------------------5--5-5---|
|----0----7------10---8---7--8-7--5--5-5--5-5--3-3-3--3-3---|
|--0-0--0---10-7----0---0---------5--5-5--5-5--3-3----------|
PM .    .           .   .   

Verse Cont. (Guitar 1 )
|-----------------------------------------------------------|
|-----------------------------------------------------------|
|---------------------------------77777777777777777---------|
|---------------------------------xxxxxxxxxxxxxxxxx---------|
|----0----7------10---8---7--8-7--55555555555555555---------|
|--0-0--0---10-7----0---0-----------------------------------|
PM .    .           .   .

Verse Cont. (Guitar 2 )
|-------------------------------------------------------------------|
|-------------------------------------------------------------------|
|---------------------------------10101010101010101414141412121212--|
|---------------------------------x-x-x-x-x-x-x-x-x-x-x-x-x-x-x-x---|
|----0----7------10---8---7--8-7--8-8-8-8-8-8-8-8-1212121210101010--|
|--0-0--0---10-7----0---0-------------------------------------------|
PM .    .           .   .

Chorus. (Guitar 1 )
|--------------------------------------------------------------------------|
|--------------------------------------------------------------------------|
|------------------------------------------------------------------------5-|
|------7-8-7----3--5--5--7--10-12------7-8-7----3--5--2-2-2-2-2-2-2--1---5-|
|----5-------8--3--3--5--5--8--8-----5-------8--3--3--3-3-3-3-3-3-3--1---3-|
|--0------------3--3--5--5--8--8---0------------3--3--2-2-2-2-2-2-2--1-----|
PM . .                             . .

Chorus Cont. (Guitar 1)
|-----------------------------------------------------------------|
|-----------------------------------------------------------------|
|-----------------------------------------------------------------|
|--0--7------3--5--5--7--10-12--3-3-3-3-3-3-3-3-3-3-3-3-3-3-3-3---|
|--0----10-8-3--3--5--5--8--8---1-1-1-1-1-1-1-1-1-1-1-1-1-1-1-1---|
|--0---------3--3--5--5--8--8---1-1-1-1-1-1-1-1-1-1-1-1-1-1-1-1---|
[ Tab from: http://www.guitartabs.cc/tabs/i/it_dies_today/a_threnody_for_modern_romance_tab_ver_3.html ]
Chorus. (Guitar 2 )
|--------------------------------------------------------------------------|
|--------------------------------------------------------------------------|
|------5-7-5---------------------------5-7-5-----------------------------5-|
|------------7--3--5--5--7--10-12------------7--3--5--2-2-2-2-2-2-2--1---5-|
|----8----------3--3--5--5--8--8-----8----------3--3--3-3-3-3-3-3-3--1---3-|
|--0------------3--3--5--5--8--8---0------------3--3--2-2-2-2-2-2-2--1-----|
PM . .                             . .

Chorus Cont. (Guitar 2 )
|-----------------------------------------------------------------|
|-----------------------------------------------------------------|
|-----5-----------------------------------------------------------|
|--0----8-7--3--5--5--7--10-12--3-3-3-3-3-3-3-3-3-3-3-3-3-3-3-3---|
|--0---------3--3--5--5--8--8---1-1-1-1-1-1-1-1-1-1-1-1-1-1-1-1---|
|--0---------3--3--5--5--8--8---1-1-1-1-1-1-1-1-1-1-1-1-1-1-1-1---|

After Chorus part. (both guitars)
|-------------------------------------------------------------------|
|-------------------------------------------------------------------|
|-------------------------------------------------------------------|
|-------------------------------------------------------------------|
|--000-000-000-000-000-000-000-000-000-000-000-000-000-000-000-000--|
|--000-000-000-000-000-000-000-000-000-000-000-000-000-000-000-000--|
PM ... ... ... ... ... ... ... ... ... ... ... ... ... ... ... ...

After Chorus part 2(both guitars)
|---------------------------------------------------------------------------
|---------------------------------------------------------------------------
|---------------------------------------------------------------------------
|---------------------------------------------------2---------------3------2
|--0-0-0-0--0-0-000--0-0-000-0-0--0-0-000-0-0---3-5-----1-3-5---3-5-----1-3-
|--0-0-0-0--0-0-000--0-0-000-0-0--0-0-000-0-0-0-------0-------0-------0-----
PM . . . .  . . ...  . . ... . .  . . ... . . . . .   . . .   . . .   . . .
^^play that twice^^


Verse  x1


here's the little part that you play before this Chorus (pre-chorus i guess)
|--------------------------------------|
|--------------------------------------|
|-----------9--------------------------|
|------7-10---10-9-7-5-5-5-5-7-7-7-7---|
|--0-7---------------3-3-3-3-5-5-5-5---|
|--------------------------------------|
PM . . .  . .  . . .


Chorus x1


and then after the second chorus you play this
|------------------------------------------------------------------|
|------------------------------------------------------------------|
|------------------------------------------------------------------|
|------------------------------------------------------------------|
|------------------------------------------------7------10---8-----|
|--0~--0-0-0-0-0--0~--0-0-0-0-0--0~--0-0-0-0-0-0---10-8----0---0---|
PM     . . . . .      . . . . .      . . . . . .           .   .

|-----------------------------------------------------------------|
|-----------------------------------------------------------------|
|-----------------------------------------------------------------|
|-------------------------------------------------3-3--5--5-5-----|
|-------------------------------------------------1-1--3--3-3-----|
|--0~--0-0-0-0-0--0~--0-0-0-0-0--0~--0-0-0-0-0-0------------------|
PM     . . . . .      . . . . .      . . . . . . 

and here's the rythem part during the solo.
|-----------------------------------------------------------|
|-----------------------------------------------------------|
|-----------------------------------------------------------|
|--7-7--5--3--3-3--3-3-3--5--5-5--5-5-5---------------------|
|--5-5--3--1--1-1--1-1-1--3--3-3--3-3-3--7------10---8------|
|------------------------------------------10-7----0---0----|
PM                                                 .   .

|-----------------------------------------------------------|
|-----------------------------------------------------------|
|-----------------------------------------------------------|
|--7-7--5--3--3-3--3-3-3------------------------------------|
|--5-5--3--1--1-1--1-1-1--3--3-3--3-3-3--0-0-0-0-0-0-0-0----|
|-------------------------3--3-3--3-3-3--0-0-0-0-0-0-0-0----|
PM                                         . . . . . . .

Pre-Chorus   x1
Chorus       x2

and that's basically the whole song except for the solo
any problems or questions e-mail em at thricefan776@yahoo.com
Comments