Isle Of Q - Little Scene Chords & Tabs

 

Little Scene Chords & Tabs

Isle Of Q Chords & Tabs

Version: 2 Type: Tab 0 ratings
1 star 2 stars 3 stars 4 stars 5 stars
comments

Little Scene Tab

Isle Of Q
Little Scene


Play intro with distortion

E---||------------------------------------------------------------------
B---||------------------------------------------------------------------
G---||------------------------------------------------------------------
D---||------------------------------------------------------------------
A---||------------------------------------------------------------------
E---||--0-----0--7--6~~~--0--5--3~~~--5--0-----2^~~~-----0-----0--7-----

E--------------------------------------||-------------------------------
B--------------------------------------||-------------------------------
G-------------------------------------*||-------------------------------
D-------------------------------------*||-------------------------------
A--------------------------------------||-------------------------------
E---6~~~--0--5--3~~~--5--0-----2^~~~---||-------------------------------

First verse is bass playing this riff only

E-----------------------------------------------------------------------
B-----------------------------------------------------------------------
G-----------------------------------------------------------------------
D-----------------------------------------------------------------------
A-----------------------------------------------------------------------
E---0-----0--7--6~~~--0--5--3~~~--5--0-----2^~~~-----0-----0--7--6------

E-------------------------------------||--------------------------------
B-------------------------------------||--------------------------------
G------------------------------------*||--------------------------------
D------------------------------------*||--------------------------------
A-------------------------------------||--------------------------------
E---~~~--0--5--3~~~--5--0-----2^~~~---||--------------------------------

Play with distortion for the chorus

E-----------------------------------------------------------------------
B-----------------------------------------------------------------------
G-----------------------------------------------------------------------
D-----------------------------------------------------------------------
A-----------------------------------------------------------------------
E---0-----0--7--6~~~--0--5--3~~~--5--0-----2^~~~-----0-----0--7--6------

2x

E-------------------------------------||--------------------------------
B-------------------------------------||--------------------------------
G------------------------------------*||--2-----------------------------
D------------------------------------*||--2--------------------2--------
A-------------------------------------||--0--------------5--5--2--------
E---~~~--0--5--3~~~--5--0-----2^~~~---||-----------------3--2--0--------

Use palm muting for verse

E-----------------------------------------------------------------------
B-----------------------------------------------------------------------
G-----------------------------------------------------------------------
D-----------------------------------------------------------------------
A-----------------------------------------------------------------------
E---0--7--6~~~--0--5--3~~~--5--0-----2^~~~-----0-----0--7--6~~~--0------

E-----------------------------||----------------------------------------
B-----------------------------||----------------------------------------
G----------------------------*||----------------------------------------
D----------------------------*||----------------------------------------
A-----------------------------||----------------------------------------
E---5--3~~~--5--0-----2^~~~---||----------------------------------------

Play with distortion for the chorus

E-----------------------------------------------------------------------
B-----------------------------------------------------------------------
G-----------------------------------------------------------------------
D-----------------------------------------------------------------------
A-----------------------------------------------------------------------
E---0-----0--7--6~~~--0--5--3~~~--5--0-----2^~~~-----0-----0--7--6------

2x Bridge
[ Tab from: http://www.guitartabs.cc/tabs/i/isle_of_q/little_scene_tab_ver_2.html ]
E-------------------------------------||--------------------------------
B-------------------------------------||--------------------------------
G------------------------------------*||--------------------------------
D------------------------------------*||--------------------------------
A-------------------------------------||--7--7~~~--6--6~~~--4--4--------
E---~~~--0--5--3~~~--5--0-----2^~~~---||--------------------------------

Let this chord ring

E--------------------0--------------------------------------------5-----
B--------------------0--------------------------------2-----------5-----
G--------------------3--------------------------------2-----------2-----
D-----------------4--4--------------------------------2-----------2-----
A---~~~--2--2~~~--4--4--------------------------------0-----------0-----
E-----------------2--2--------------------------------------------------

Let this chord ring Let this chord ring

E---------------------------------0-------------------------------------
B---------------------------------0--------------------------------2----
G---------------------------------3--------------------------------2----
D------------------------------4--4--------------------------------2----
A------------------------------4--4--------------------------------0----
E------------------------------2--2-------------------------------------

Let this chord ring Let this chord ring

E------------5--------------------------------0-------------------------
B------------5--------------------------------0-------------------------
G------------2--------------------------------3-------------------------
D------------2-----------------------------4--4-------------------------
A------------0-----------------------------4--4-------------------------
E------------------------------------------2--2-------------------------

Let this chord ring

E------------------------5-----------------------------------0----------
B------------2-----------5-----------------------------------0----------
G------------2-----------2-----------------------------------3----------
D------------2-----------2--------------------------------4--4----------
A------------0-----------0--------------------------------4--4--7--7----
E---------------------------------------------------------2--2----------

Solo

E--------------------------------------|--------------------------------
B--------------------------------------|----------------------0---------
G--------------------------------------|--12/---14---/--------2^--------
D-----------------------------------2--|--12/--14--/-/------------------
A---~~~--6--6~~~--4--4~~~--2--2~~~--2--|--------------------------------
E-----------------------------------0--|--------------------------------

E--------0-----------------------12----------------------------12-------
B-----------0--3--5~~~-----------15^--15--------------12----------------
G---~~~-----------------------------------12^---------12--14^-----------
D----------------------------------------------14~~~--------------------
A-----------------------------------------------------------------------
E-----------------------------------------------------------------------

E-----------------------------------------------------------------------
B---15--12----------12--------------------------------------------------
G-----------14--15------14----------------------------------------------
D---------------------------14~~~--12--14------------------14~~~--12----
A------------------------------------------12^--12--10------------------
E-----------------------------------------------------------------------

Whammy pedal effect

E-----------------------------------------------|-----------------------
B-----------------------------------------------|-----------------------
G-------12--14--14^-----------------------------|-----------------------
D---14------------------------------------------|-----------------------
A-----------------------------------------------|-----------------------
E-----------------------------------------------|-----------------------

Repeat chorus until end of song

E-----------------------------------------------------------------------
B-----------------------------------------------------------------------
G-----------------------------------------------------------------------
D-----------------------------------------------------------------------
A-----------------------------------------------------------------------
E---0-----0--7--6~~~--0--5--3~~~--5--0-----2^~~~-----0-----0--7--6------

4x

E-------------------------------------||--3--||-------------------------
B-------------------------------------||--3--||-------------------------
G------------------------------------*||--0--||-------------------------
D------------------------------------*||--0--||-------------------------
A-------------------------------------||--2--||-------------------------
E---~~~--0--5--3~~~--5--0-----2^~~~---||--3--||-------------------------
Comments