Isle Of Q - Here And Gone Chords & Tabs

 

Here And Gone Chords & Tabs

Isle Of Q Chords & Tabs

Version: 2 Type: Tab 0 ratings
1 star 2 stars 3 stars 4 stars 5 stars
comments

Here And Gone Tab

Here and Gone
Isle of Q
Intro: With distortion

Eb--||------------------------------------------------------------------
Bb--||------------------------------------------------------------------
Gb--||------------------------------------------------------------------
Db--||------------------------------------------------------------------
Ab--||--2-----5--7--5-----2--0--2--2-----5--7--5-----2--0--2-----5------
Db--||--2-----5--7--5-----2--0--2--2-----5--7--5-----2--0--2-----5------

Eb---------------------------------------------||-----------------------
Bb---------------------------------------------||-----------------------
Gb--------------------------------------------*||-----------------------
Db--------------------------------------------*||-----------------------
Ab--7--5-----2--0--2--2-----5--7--5-----2--0---||-----------------------
Db--7--5-----2--0--2--2-----5--7--5-----2--0---||-----------------------

Verse: Repeat riff with palm muting

Eb----------------------------------------------------------------------
Bb----------------------------------------------------------------------
Gb----------------------------------------------------------------------
Db----------------------------------------------------------------------
Ab--2-----5--7--5-----2--0--2--2-----5--7--5-----2--0--2-----5--7--5----
Db--2-----5--7--5-----2--0--2--2-----5--7--5-----2--0--2-----5--7--5----

Eb---------------------------------------||-----------------------------
Bb---------------------------------------||-----------------------------
Gb--------------------------------------*||--5--------------7-----------
Db--------------------------------------*||--5--------------7-----------
Ab-----2--0--2--2-----5--7--5-----2--0---||--3-----5--5-----5-----------
Db-----2--0--2--2-----5--7--5-----2--0---||--------5--5-----------------

Eb----------------------------------------------------------------------
Bb----------------------------------------------------------------------
Gb--------5-----------7-----------5-----------7-----------5-------------
Db--------5-----------7-----------5-----------7-----------5-------------
Ab--------3-----5-----5-----------3-----5-----5-----------3--5----------
Db--------------5-----------------------5--------------------5----------

Eb----------------------------------------------------------------------
Bb----------------------------------------------------------------------
Gb----------------------------------------------------------------------
Db----------------------------------------------------------------------
Ab--2-----5--7--5-----2--0--2--2-----5--7--5-----2--0--2-----5--7--5----
Db--2-----5--7--5-----2--0--2--2-----5--7--5-----2--0--2-----5--7--5----

Repeat verse and chorus
[ Tab from: http://www.guitartabs.cc/tabs/i/isle_of_q/here_and_gone_tab_ver_2.html ]
Eb--------------------------------------|-------------------------------
Bb--------------------------------------|-------------------------------
Gb--------------------------------------|-------------------------------
Db--------------------------------------|-------------------------------
Ab-----2--0--2--2-----5--7--5-----2--0--|-------------------------------
Db-----2--0--2--2-----5--7--5-----2--0--|-------------------------------

Bridge

Eb--------|-------------------------------------------------------------
Bb--------|-------------------------------------------------------------
Gb--------|-------------------------------------------------------------
Db--------|--1-----------------------------0-----------------1----------
Ab--------|--1-----------------------------0-----------------1----------
Db--------|--1-----------------------------0-----------------1----------

Eb----------------------------------------------------------------------
Bb----------------------------------------------------------------------
Gb----------------------------------------------------------------------
Db-----------------------0-----------------------1----------------------
Ab-----------------------0-----------------------1----------------------
Db-----------------------0-----------------------1----------------------

Solo

Eb-----------------------------------------------------------|----------
Bb-----------------------------------------------------------|----------
Gb-----------------------------4-----------------4--4--4--4--|--6-8-----
Db-----------0-----------------4-----------------4--4--4--4--|----------
Ab-----------0-----------------2-----------------2--2--2--2--|--4/6-----
Db-----------0-----------------------------------------------|----------

Eb----------------------------------------------------------------------
Bb-------------------------------------------17--17--17--17--16--16-----
Gb--8-10--10-11--11-13--13-15--15-18--18-----16--16--16--16--16--16-----
Db----------------------------------------------------------------------
Ab--6/8---8-/9---9-/11--11/13--13/16--16~~~-----------------------------
Db----------------------------------------------------------------------

Eb----------------------------------------------------------------------
Bb--16--16--19--19--19--19--17--17--17--17------------------------------
Gb--16--16--16--16--16--16--16--16--16--16-----6-8--8-10--10-11--11-----
Db----------------------------------------------------------------------
Ab---------------------------------------------4/6--6/8---8-/9---9------
Db----------------------------------------------------------------------

Eb---------------------------------------------------------------12-----
Bb--------------------------/17--17--17--16--16--15--15----------12-----
Gb---13--13-15--15-18--18----16--16--16--16--16--16--16-----14^---------
Db----------------------------------------------------------------------
Ab--/11--11/13--13/16--16~~~--------------------------------------------
Db----------------------------------------------------------------------

Eb-------12--12---|-----------------------------------------------------
Bb-------12--12---|-----------------------------------------------------
Gb--14^------14^--|-----------------------------------------------------
Db----------------|-----------------------------------------------------
Ab----------------|-----------------------------------------------------
Db----------------|-----------------------------------------------------
Comments